Blood Brothers - Love Rhymes With Hideous Car Wreck Chords & Tabs

 

Love Rhymes With Hideous Car Wreck Chords & Tabs

Blood Brothers Chords & Tabs

Version: 3 Type: Tab 0 ratings
1 star 2 stars 3 stars 4 stars 5 stars
comments

Love Rhymes With Hideous Car Wreck Tab

   
intro
e|---------------------------------------------------------|
B|---------------------------------------------------------|
G|---------------------------------------------------------|
D|---------------------------------------------------------|
A|--6-6-6-6-5-----------------------6-6-6-6-6-6-5----------|
E|--------------3-3-3-3-3-3-3-----3------------------------|x1


0:12              "those tire tracks..."         
e|----------------------------------------------------------------------------|
B|----------------------------------------------------------------------------|
G|----------------------------------------------------------------------------|
D|----------------5----------------5-----------------5-----5-5-5-5-5-5-5------|
A|--6-6-6-6-6-5-6-----5-5-5-5-5-5-5-----6-6-6-6-6-5-6-------------------------|
E|----------------------------------------------------------------------------|x6
 (the second time you play this leave out the 5-5-5-5-5-5-5 at the end.)


0:54               "love love love..."
e|-----------------------------------------------|
B|-----------------------------------------------|
G|-----------------------------------------------|
D|-----------------------------------------------|
A|---6---6-6---6-5---5-5---5-3---3-3---3-1-------|
E|-----------------------------------------------|

e|-----------------------------------------------|
B|-----------------------------------------------|
G|-----------------------------------------------|
D|-----------------------------------------------|
A|---6---6-6---6-5---5-5---5-3---3-3-5-3-1-------|
E|-----------------------------------------------|x1


1:11
e|----------|
B|----------|
G|----------|
D|------5---|
A|--6-5-----|
E|----------|x1

[ Tab from: http://www.guitartabs.cc/tabs/b/blood_brothers/love_rhymes_with_hideous_car_wreck_tab_ver_3.html ]
0:12              "jane let you touch her..."       
e|----------------------------------------------------------------------------|
B|----------------------------------------------------------------------------|
G|----------------------------------------------------------------------------|
D|----------------5----------------5-----------------5-----5-5-5-5-5-5-5------|
A|--6-6-6-6-6-5-6-----5-5-5-5-5-5-5-----6-6-6-6-6-5-6-------------------------|
E|----------------------------------------------------------------------------|x1


1:26              "jane said when she laid on her back..."
e|-------------------|
B|-------------------|
G|-------------------|
D|--5-5-5-5-5-5-5-5--|
A|-------------------|
E|-------------------|x1


1:33              "somethings never get better..."       
e|----------------------------------------------------------------------------|
B|----------------------------------------------------------------------------|
G|----------------------------------------------------------------------------|
D|----------------5----------------5-----------------5-----5-5-5-5-5-5-5------|
A|--6-6-6-6-6-5-6-----5-5-5-5-5-5-5-----6-6-6-6-6-5-6-------------------------|
E|----------------------------------------------------------------------------|x2


1:48              "back at the hospital..."
e|---------------------|
B|---------------------|
G|---------------------|
D|---8--7--8--8--------|
A|---6--5--6--6--------|
E|---------------------|x8
(i am not one hundred percent sure about the chords used here)


2:16              "she met him a week after you left her..."
E --------------------------------------------------------------------|
B --------------------------------------------------------------------|
G --------------------------------------------------------------------|
D --------------------------------------------------------------------|
A --------------------------------------------------------------------|
E --3-3-3----2-2-2----5-5-5----6-6-6----3-3-3-3---5---3--2-2-2-2-2-2--|x4
(the third time you play this pause after your first 6 and then go straight to the 3's)


2:47    "love love love..."
e|---------------------------------|
B|---------------------------------|
G|---------------------------------|
D|---------------------------------|
A|--6------5-------3-------1-------|
E|---------------------------------|x2

outro
e|----------------------------------------------------------|
B|----------------------------------------------------------|
G|----------------------------------------------------------|
D|----------------------------------------------------------|
A|-6-6-6-6-6-6-6-5-5-5-5-5-5-5-3-3-3-3-3-3-3-3-1-1-1-1-1-1-1|
E|----------------------------------------------------------|
Comments