Blood Brothers - Love Rhymes With Hideous Car Wreck Chords & Tabs

 

Love Rhymes With Hideous Car Wreck Chords & Tabs

Blood Brothers Chords & Tabs

Version: 2 Type: Tab 0 ratings
1 star 2 stars 3 stars 4 stars 5 stars
comments

Love Rhymes With Hideous Car Wreck Tab

Tabbed by:coheedandnofx
AIM:xautumnxromance

Tuning: Standard

                     ::INTRO::
e|---------------------------------------------------------|
B|---------------------------------------------------------|
G|---------------------------------------------------------|
D|---------------------------------------------------------|
A|---7-7-7-7-6----2-2-2-2-2-2-2---2/7-7-7-7-7-7-6----------|
E|---------------------------------------------------------|

                              ::VERSE::
e|----------------------------------------------------------------------------|
B|----------------------------------------------------------------------------|
G|----------------------------------------------------------------------------|
D|----------------------------------------------------------------------------|
A|---7-7-7-7-7-6-7-9-10-5-5-5-5-5-5-5-5/7-7-7-7-7-7-6-7-9-10-10-10-10-10-10---|
E|----------------------------------------------------------------------------|
  occasionally let the first 10 ring...
[ Tab from: http://www.guitartabs.cc/tabs/b/blood_brothers/love_rhymes_with_hideous_car_wreck_tab_ver_2.html ]
                 ::CHORUS::
e|-----------------------------------------------|
B|-----------------------------------------------|
G|-----------------------------------------------|
D|-----------------------------------------------|
A|---7--7-7--7--6--6-6--6--4--4-4--4--2~---------|
E|-----------------------------------------------|
 
Before verse starts again...
e|--------------|
B|--------------|
G|--------------|
D|--------------|
A|---2-4-6-2----|
E|--------------|
 

 "Back at the hospital..."
e|---------------------|
B|---------------------|
G|---------------------|
D|---8--10--8--8-------|
A|---7--9---10-10------|
E|---------------------|

   "She met him a week after you left her..."
e|----------------------------------------------------------|
B|----------------------------------------------------------|
G|----------------------------------------------------------|
D|---5-5-5-4-4-4-7-7-7-8-8-8--5-5-5-5-7-5-4-4-5-4-4-5-------|
A|---x-x-x-x-x-x-x-x-x-x-x-x--x-x-x-x-x-x-x-x-x-x-x-x-------|
E|---3-3-3-2-2-2-5-5-5-6-6-6--3-3-3-3-5-3-2-2-3-2-2-3-------|

HAve FuN
Comments