Blood Brothers - Love Rhymes With Hideous Car Wreck Chords & Tabs

 

Love Rhymes With Hideous Car Wreck Chords & Tabs

Blood Brothers Chords & Tabs

Version: 1 Type: Tab 0 ratings
1 star 2 stars 3 stars 4 stars 5 stars
comments

Love Rhymes With Hideous Car Wreck Tab

E -----------------------------------------|
B -----------------------------------------|
G -----------------------------------------|
D -----------------------------------------|
A -----------------------------------------|
E --11----11--11----11--10-----------------|


E ----------------------------------------------------------------|
B ----------------------------------------------------------------|
G ----------------------------------------------------------------|
D ----------------------------------------------------------------|
A ----------------------------------------------------------------|
E --3---3-3---3-3---3-3---3-----11----11--11----11--10------------|

verse:

E ----------------------------------------------------------------|
B ----------------------------------------------------------------|
G ----------------------------------------------------------------|
D ----------------------------------------------------------------|
A ------------------------------10----------------------10--------|
E --11--11--11--11--11--10--11------10--10--10--10--10------------|


E ----------------------------------------------------------------|
B ----------------------------------------------------------------|
G ----------------------------------------------------------------|
D ----------------------------------------------------------------|
A ------------------------------10----10--10--10--10--10----------|
E --11--11--11--11--11--10--11----------------------------10--11--|


part were he yells Love Love Love Love Love Love:
[ Tab from: http://www.guitartabs.cc/tabs/b/blood_brothers/love_rhymes_with_hideous_car_wreck_tab.html ]
E ----------------------------------------------------------------|
B ----------------------------------------------------------------|
G ----------------------------------------------------------------|
D ----------------------------------------------------------------|
A ----------------------------------------------------------------|
E --11----11--11----11--10----10--10----10--8---8-8----8---6------|

Second time with little variation:

E ----------------------------------------------------------------|
B ----------------------------------------------------------------|
G ----------------------------------------------------------------|
D ----------------------------------------------------------------|
A ----------------------------------------------------------------|
E --11----11--11----11--10----10--10----10--8---8-8--10--8---6----|

CHord progression:

E --3----1----3----3--------------------------------------------------|
B --3----1----3----3--------------------------------------------------|
G --3----2----3----3--------------------------------------------------|
D --5----3----5----5--------------------------------------------------|
A --------------------------------------------------------------------|
E --------------------------------------------------------------------|

the fun screaming part:

E --------------------------------------------------------------------|
B --------------------------------------------------------------------|
G --------------------------------------------------------------------|
D --------------------------------------------------------------------|
A --------------------------------------------------------------------|
E --3-3-3----2-2-2----5-5-5----6-6-6----3-3-3-3---5---3--2-2-2-2-2-2--|
Comments