Blood Brothers - Love Rhymes With Hideous Car Wreck Live Chords & Tabs

 

Love Rhymes With Hideous Car Wreck Live Chords & Tabs

Blood Brothers Chords & Tabs

Version: 1 Type: Bass Tab 0 ratings
1 star 2 stars 3 stars 4 stars 5 stars
comments

Love Rhymes With Hideous Car Wreck Live Bass Tab

   
By Ambulance X
For Ultimate-guitar.com
6.27.05
Their latest single off of their latest album Crimes.

Riff A
G-------------------|
D-------------------|
A-------------------|
E--11-X-11-11-X-10--|

Riff B
G--------------------------------------|
D--------------------------------------|
A--------------------------------------|
E--3-X-3-3-X-3-3-X-3-3-11-X-11-11-X-10-|

Riff C
G---------------------------------------------|
D---------------------------------------------|
A-------------------------10------------------|
E--11-11-11-11-11-11-10-11--10-10-10-10-10-10-|

Riff C (cont'd)
G-------------------------------------------------|
D-------------------------------------------------|
A-------------------------10-10-10-10-10-10-------|
E--11-11-11-11-11-11-10-11------------------10-11-|
*2nd time through, play the 10 on the A string once and let it ring*

Riff d
G--------------------------------------------------------|
D--------------------------------------------------------|
A--------------------------------------------------------|
E--11-X-11-11-X-10-X-10-10-X-8-X-8-8-X-6-X-6-6-X-6-X-6-6-|
*Repeat until pause is reached then go to riff E*

Riff E
G------------|
D------------|
A------------|
E--6-8-10-11-|

Riff F
G-----------------------------------------|
D-----------------------------------------|
A-----------------------------------------|
E--11-X-11-11-X-10-X-10-10-X-8-X-8-8-10-6-|
[ Tab from: http://www.guitartabs.cc/tabs/b/blood_brothers/love_rhymes_with_hideous_car_wreck_live_btab.html ]
Riff G
G----------|
D----------|
A-------10-|
E--11-10---|

Riff H
G--------------------|
D--5-5-5-5-5-5-5-5-5-|
A--------------------|
E--------------------|

Riff I
G----------|
D--8-7-8-8-|
A--6-5-6-6-|
E----------|
*3rd time and on,let the chords ring out*

Riff J (D)
G--------------------------|
D--------------------------|
A--5-5-5-4-4-4-8-8-8-7-7-7-|
E--3-3-3-2-2-2-6-6-6-5-5-5-|

Riff K (D)
G----------------------|
D----------------------|
A--5-5-5-7-5-4-4-4-4-4-|
E--3-3-3-5-3-2-2-2-2-2-|

Riff L (D)
G-----------------------|
D-----------------------|
A--5-5-5-4-4-4-8-8-8-7~-|
E--3-3-3-2-2-2-6-6-6-5~-|

Riff M
G----------------|
D----------------|
A----------------|
E--11~-10~-8~-6~-|

Riff N
G--------------------------------------------------------------------------|
D--------------------------------------------------------------------------|
A--------------------------------------------------------------------------|
E--11-11-11-11-11-11-11-10-10-10-10-10-10-10-8-8-8-8-8-8-8-6-6-6-6-6-6-6-6-|

Riff N (cont'd)
G--------------|
D--------------|
A--8-8-8-8-8-8-|
E--6-6-6-6-6-6-|
*Strum along with increasing tempo*

Riff A x1
Riff B x1
Riff A x1
Riff C x6
Riff d x1
Riff E x1
Riff F x1
Riff G x1
Riff C x1
Riff H x1
Riff C x2
Riff J x1
Riff K x1
Riff J x1
Riff K x1
Riff L x1
Riff K x1
Riff J x1
Riff K x1
Riff M x1
Riff N x1

(d)= Distortion
/= Slide
~- Sustain/Ring out
Comments