Blood Brothers - Fucking Greatest Hits Chords & Tabs

 

Fucking Greatest Hits Chords & Tabs

Blood Brothers Chords & Tabs

Version: 1 Type: Tab 0 ratings
1 star 2 stars 3 stars 4 stars 5 stars
comments

Fucking Greatest Hits Tab

THE BLOOD BROTHERES
FvCKINGS GREATEST HITS
FROM THE ALBUM BURN PIANO ISLAND BURN
TABBED BY: XDESPAIRFACTOR

TUNING: EBGDAE

|------------------------|
|------------------------|
|------------------------|
|------------------------|
|--5---1---5-5-8-8-8-----|
|----3---1-3-3-6-6-6-----|

|---------|
|--12-12--|
|--12-12--|
|-- 0- 0--|
|---------|
|---------|

|-----------------|
|-----------------|
|-----------------|
|-----------------|
|-5-5-8-8-8-------|
|-3-3-6-6-6-------|

|------------------------|
|------------------------|
|------------------------|
|------------------------|
|--5---1---5-5-8-8-8-----|
|----3---1-3-3-6-6-6-----|

|---------|
|--12-12--|
|--12-12--|
|-- 0- 0--|
|---------|
|---------|

|-----------|
|-----------|
|-----------|
|-----------|
|--5-----1--|
|----3-1----|

|---------|
|--12-12--|
|--12-12--|
|-- 0- 0--|
|---------|
|---------|

|-----------------------------------------------------|
|-----------------------------------------------------|
|--7-7-7-7---3--3--3----------------------------------|
|--7-7-7-7---3--3--3--5--5-5-5-5-5-5--5--5-5-5-5-5-5--|
|--5-5-5-5---1--1--1--5--5-5-5-5-5-5--5--5-5-5-5-5-5--|
|---------------------3--3-3-3-3-3-3--3--3-3-3-3-3-3--|
[ Tab from: http://www.guitartabs.cc/tabs/b/blood_brothers/fucking_greatest_hits_tab.html ]
|---------|
|--12-12--|
|--12-12--|
|-- 0- 0--|
|---------|
|---------|

|-----------------|
|-----------------|
|-----------------|
|-----------------|
|-5-5-8-8-8-------|
|-3-3-6-6-6-------|

|------------------------|
|------------------------|
|------------------------|
|------------------------|
|--5---1---5-5-8-8-8-----|
|----3---1-3-3-6-6-6-----|

|---------|
|--12-12--|
|--12-12--|
|-- 0- 0--|
|---------|
|---------|

|-----------|
|-----------|
|-----------|
|-----------|
|--5-----1--|
|----3-1----|

|---------|
|--12-12--|
|--12-12--|
|-- 0- 0--|
|---------|
|---------|

|-----------------------------------------------------|
|-----------------------------------------------------|
|--7-7-7-7---3--3--3----------------------------------|
|--7-7-7-7---3--3--3--5--5-5-5-5-5-5--5--5-5-5-5-5-5--|
|--5-5-5-5---1--1--1--5--5-5-5-5-5-5--5--5-5-5-5-5-5--|
|---------------------3--3-3-3-3-3-3--3--3-3-3-3-3-3--|

|-------|
|-------|
|--7\3--|
|--7\3--|
|--5\1--|
|-------|

|-----------------------------------------------------|
|-----------------------------------------------------|
|--7-7-7-7---3--3--3----------------------------------|
|--7-7-7-7---3--3--3--5--5-5-5-5-5-5--5--5-5-5-5-5-5--|
|--5-5-5-5---1--1--1--5--5-5-5-5-5-5--5--5-5-5-5-5-5--|
|---------------------3--3-3-3-3-3-3--3--3-3-3-3-3-3--|
Comments