Blood Brothers - Burn Piano Island Burn Chords & Tabs

 

Burn Piano Island Burn Chords & Tabs

Blood Brothers Chords & Tabs

Version: 1 Type: Bass Tab

Burn Piano Island Burn Bass Tab

The blood brothers
...Burn Piano Island Burn
 (*)- play 8 times

G------------------------------------------------------------| -----|
D------------------------------------------------------------| -----|
A-----------------------------------------3*-5*--------------| -----|
E-5-5-3h5-55-5-3h5/6-3*-6*-3h5-55-5-3h5/6------3h5-55-5-3h5/6| -5--5|

   3x....---> after everythird time/              (48-------------------|s)
G-----------------|-------|---------------------|-----------------------|
D-----------------|-------|---------------------|-----------------------|
A-----------------|-3*-5*-|---------------------|-----------------------|
E-3h5-55-5-3h5/6--|-------|--5-5-5/-5/-5/-5/----|-55-55-55-55-55-55-55--|

  (1:00)             (3x)
G---------------------|-------------------|-----------|-----------|
D---------------------|-------------------|-----------|-----------|
A--77-77--------------|77-77--------------|-7*--------|7*---------|
E-------55-55-88-88-77|-----55-55-88-88-33|---5*-8*-7*|--5*-8*-3*-|
[ Tab from: http://www.guitartabs.cc/tabs/b/blood_brothers/burn_piano_island_burn_btab.html ]
G---------------------|-----------------|
D--5------5--------5--|-----------------|
A-7-7--3/7-7-77-3/7-7-|-----------------|
E---------------------|-5-5-5-5-5-5-5-5-|
   (1:48)             (2x)
G----------------------|--------------------|-----------|-----------|
D----------------------|--------------------|-----------|-----------|
A-77-77----------------|77-77---------------|7*---------|7*---------|
E------55-55-88-88-77--|-----55-55-88-88-33-|--5*-8*7*--|--5*-8*-3*-|
  (2:31)   listen to the timing here
           this part isnt perfect
G--------|------------------------|----------------|
D--------|------------------------|----------------|
A-7-7-7-7|------------------------|----------------|
E--------|-5-0-3-5-0-0-3-5-3-0----|5-5-5-5-5-5-5-5-|

   (3:28)           (3:36)
G-------------------9--9--9--9--9--9--9--8----------|
D-----------------------------------------10-10--10-|
A-7-7-7-7-7-7-7-7-7--7--7--7--7--7--7---------------|
E--------------------------------------8-------8----|

Tabbed by Hector , have fun