Blood Brothers - Beautiful Horses Chords & Tabs

 

Beautiful Horses Chords & Tabs

Blood Brothers Chords & Tabs

Version: 2 Type: Tab

Beautiful Horses Tab

-------------------------------------------------------------------------------
			     Beautiful Horses  
                                   By
                            The Blood Brothers
-----------------------------------------------------------------------------
Tabbed by: Colin Rolfe
Email: el_muchacho41@yahoo.com

Tuning: Standard

The Guy who tabbed this origially did it all wrong so i'm going to fix it up.

Verse:

You basiclly repeat these two notes endlessly, the snazzy part is in the bass.
I'm not going to bother writing it out, you know how it goes.
e|--------------------------------------------------------------------------|
B|--------------------------------------------------------------------------|
G|--------------------------------------------------------------------------|
D|-0------------------------------------------------------------------------|
A|-5------------------------------------------------------------------------|
E|--------------------------------------------------------------------------|

Chorus:
He Plays the chorus twice.
e|--------------------------------------------------------------------------|
B|--------------------------------------------------------------------------|
G|-7-7---5------------------------------------------------------------------|
D|-7-7---5--5-5--3----------------------------------------------------------|
A|-5-5---3--5-5--3----------------------------------------------------------|
E|----------3-3--1----------------------------------------------------------|

Verse 2:
Then Your gonna repeat the verse:
e|--------------------------------------------------------------------------|
B|--------------------------------------------------------------------------|
G|--------------------------------------------------------------------------|
D|-0------------------------------------------------------------------------|
A|-5------------------------------------------------------------------------|
E|--------------------------------------------------------------------------|

Then Comes the second chorus but this time you play it a little differently,
instead of playing the notes fast, play and hold the chords:
e|--------------------------------------------------------------------------|
B|--------------------------------------------------------------------------|
G|-7--5---------------------------------------------------------------------|
D|-7--5--5--3---------------------------------------------------------------|
A|-5--3--5--3---------------------------------------------------------------|
E|-------3--1---------------------------------------------------------------|
[ Tab from: http://www.guitartabs.cc/tabs/b/blood_brothers/beautiful_horses_tab_ver_2.html ]
Then Comes this part:
You play this quite a few times:
e|--------------------------------------------------------------------------|
B|--------------------------------------------------------------------------|
G|--------------------------------------------------------------------------|
D|--2-0-2-0-----2-0-2-0--2-0-2-0--------------------------------------------|
A|----------------------0---------------------------------------------------|
E|-0---------3--------------------------------------------------------------|

just as this part is finishing you play this (you'll notice a slight tempo change)
e|--------------------------------------------------------------------------|
B|--------------------------------------------------------------------------|
G|--------------------------------------------------------------------------|
D|--2-2--2-2--2-2--2-2--2-2-------------------------------------------------|
A|--------------------------------------------------------------------------|
E|-0----0----0---0-----0----0-----------------------------------------------|

Then this part goes on for a bit:
e|--------------------------------------------------------------------------|
B|--------------------------------------------------------------------------|
G|--------------------------------------------------------------------------|
D|--------------------------------------------------------------------------|
A|--------------------------------------------------------------------------|
E|-0-0--3-3-5-5--5-5-5-3-3-3------------------------------------------------|

This part ends like this and the song ends like this:
repeat this many times until he stops that wonderful, wonderful scream of his.
e|--------------------------------------------------------------------------|
B|--------------------------------------------------------------------------|
G|--------------------------------------------------------------------------|
D|--------------------------------------------------------------------------|
A|--------------------------------------------------------------------------|
E|-3-5-5--------------------------------------------------------------------|
The Song finishes with you playing this note through the next verse and then
at the end just go wild and do whatever you want as it all falls apart.
e|--------------------------------------------------------------------------|
B|--------------------------------------------------------------------------|
G|--------------------------------------------------------------------------|
D|-0------------------------------------------------------------------------|
A|--------------------------------------------------------------------------|
E|--------------------------------------------------------------------------|

The blood brothers are really easy to play but if you have trouble just email me.