Blood Brothers - Ambulance Vs Ambulance Chords & Tabs

 

Ambulance Vs Ambulance Chords & Tabs

Blood Brothers Chords & Tabs

Version: 1 Type: Tab

Ambulance Vs Ambulance Tab

   
blood bros - ambulance vs ambulance

key:

s=slide
x=play muffled
NB: In this song, slide all the way down the fretboard to 0

intro

[figure out the rhythm]

e-----------------|
b-----------------|
g---7-----4-4-4-4-|
d-6-6-6-6-6-6-6-6-|
a-5-5-5-5-5-5-5-5-|
e-4---4-4---------|

verse

e----------------|
b----------------|
g----------------|
d-66-66-66-66----|
a----------------|
e-44-44-55-55----|

last time before pre-chorus
[ Tab from: http://www.guitartabs.cc/tabs/b/blood_brothers/ambulance_vs_ambulance_tab.html ]
e---------------------------------|
b---------------------------------|
g---------------------------------|
d-66-666-666-666-666-666-666-666--|
a---------------------------------|
e-44-444-444-444-455-555-577-777--|

pre-chorus x2

e----------------|
b----------------|
g----------------|
d-6s-6s-6s-6s----|
a-5s-5s-5s-5s----|
e-4s-4s-4s-45----|

chorus

e--------------------------------|
b--------------------------------|
g--------------------------------|
d-6666666666666666666666666666666|
a-5555xxxxxxxxxxxxxxxxxxxxxxxxxxx|
e-4444444455555555000000077777755|
i don't know the rest, but if you do, email:
johnonewman@hotmail.com