Blondie - Picture This Chords & Tabs

 

Picture This Chords & Tabs

Blondie Chords & Tabs

Version: 1 Type: Chords 0 ratings
1 star 2 stars 3 stars 4 stars 5 stars
comments

Picture This Chords

   
##################################################################################
# This file is the author's own work and represents their interpretation of the  #
# song. You may only use this file for private study, scholarship, or research.  #
##################################################################################

PICTURE THIS- (Harry/Stein)
BLONDIE
Tabbed by Trevor Giles on trevorgiles1161@hotmail.com

      CFx3               
E---||------------------------|-----------8--7--5------||---------------
B---||------------8--6--5-----|--------------------8---||---------------
G---||*--5--x--5-----------7--|-----------------------*||---------------
D---||*-----------------------|--3--x--3--------------*||---------------
A---||------------------------|------------------------||---------------
E---||------------------------|------------------------||---------------
                                                                        
[ Tab from: http://www.guitartabs.cc/tabs/b/blondie/picture_this_crd.html ]
    F(G) Ab                  
E------------------|--8-----8--9--8--|-----------------|----------------
B---6--x--6--6--8--|--9--x--9--9--9--|--9--9--8--6-----|----------------
G------------------|-----------------|--------------8--|----------------
D------------------|-----------------|-----------------|----------------
A------------------|-----------------|-----------------|----------------
E------------------|-----------------|-----------------|----------------
                                                                        

    C    C NC                              
E------------------|-----------------------|----------------------------
B------------6--8--|-----------5--6--7--8--|----------------------------
G---5--x--5--------|--5--x--5--------------|--5-------------------------
D------------------|-----------------------|----------------------------
A------------------|-----------------------|----------------------------
E------------------|-----------------------|----------------------------




RIFF CHORDS
AD
AD
AD
DD
FF
GGA NC
                                  
Comments