Blondie - Heart Of Glass Chords & Tabs

 

Heart Of Glass Chords & Tabs

Blondie Chords & Tabs

Version: 1 Type: Tab 0 ratings
1 star 2 stars 3 stars 4 stars 5 stars
comments

Heart Of Glass Tab

   
Okay, the verse is similar to a bass version my mate played for me, but I figured most 
it.

Tuning: standard

intro/verse:

e:-------------------------------------------|
B:-------------------------------------------|
G:-------------------------------------------|
D:2-(2)-2--2h4---4---4--2-2-2--2h4---4--4b-2-|  repeat however much you need
A:-----------2---2---------------2-----------|
E:-------------------------------------------|

Chorus:
[ Tab from: http://www.guitartabs.cc/tabs/b/blondie/heart_of_glass_tab.html ]
e:---------|---------------------|
B:---------|---------------------|
G:---------|-----------1---------|
D:4--2---2-|-4-2-4-2-4---4-2---2-|  repeat the section in the bars
A:-----2---|-----------------2---|
E:---------|---------------------|


Solo:

e:---------|---------------------------|
B:---------|----------------9----------|
G:11-9---9-|-11-9-11-9-11-9---11-9---9-|
D:-----9---|-----------------------9---| repeat whats in the bars
A:---------|---------------------------|
E:---------|---------------------------|


h=hammer-on

Note: numbers in brackets can also be played as a mute note.
Comments