Blof - Mooie Dag Chords & Tabs

 

Mooie Dag Chords & Tabs

Blof Chords & Tabs

Version: 3 Type: Tab 0 ratings
1 star 2 stars 3 stars 4 stars 5 stars
comments

Mooie Dag Tab

Author: Lennart de Vries

intro and verse:
[ Tab from: http://www.guitartabs.cc/tabs/b/blof/mooie_dag_tab_ver_3.html ]
e|-1h3-------------------------------------------------------------------|
b|-----x-1h3--3--1h3--3--1h3--3--1h3-------0h1------3---------3--------3-|
g|------------2-------2-------2-----------0----2----2---0h2---2---0h2--2-|
d|-0--------0-------0-------0-------0----2----2---0---0---------0--------|
a|-------------------------------------0---------------------------------|
E|----------------------------------------------1-----------1--------1---|

  -------------------------------------------------------------------|
  -----0h3------3-------3-------3-----0------------3-------3-------3-|
  ---0-----0----0----0--0----0--0-----0------------0----0--0----0--0-|
  -2--2---2---2----2--2----2--2----0----0h2-2-0--0----0--0----0--0---|
  ----------3-------3-------3--------2-------------------------------|rep.
  -0--------------------------------------------3------3-------3-----|
Comments