Blof - Harder Dan Ik Hebben Kan Chords & Tabs

 

Harder Dan Ik Hebben Kan Chords & Tabs

Blof Chords & Tabs

Version: 1 Type: Tab 0 ratings
1 star 2 stars 3 stars 4 stars 5 stars
comments

Harder Dan Ik Hebben Kan Tab

   
AKKOORDEN:
G5      320033
Dsus2   XX0230
Cadd9   X32033
Am7add4 X02233
E*      XX0450


 1 INTRO)
 E-|-----5-------------5-----------5-----5-----|--
 B-|-2H3---3-2---0-2H3---3~~---2H3---3-3---3~~-|--
 G-|-------------------------------------------|--
 D-|-------------------------------------------|--
 A-|-------------------------------------------|--
 E-|-------------------------------------------|--
                      2X


 2 COUPLET)
         H  H
      E-----12---
      B--12------ / Cadd9 /     / G5 /   / Dsus2 /
 "Je buien maken vlekken op mijn hagelwit humeur."

            / Am7add4 /  / Cadd9 /        / G5 /        / Dsus2 /  / E* /  / Dsus2 /
 "Ik heb m'n handen op je heupen, maar m'n hoofd is bij de deur."

     / Am7add4 /   / Cadd9 /  / G5 /     / Dsus2 /
 "Ze zeggen dat het went. Ik heb het geprobeerd."

     / Am7add4 /      / Cadd9 /         / G5 /  
 "Maar hoe ik het ook wend of keer. M'n huis beschremt niet meer."


 3 REFREIN)
 E-----------------------------5-----5-------5---5--------5--5------
 B-------------------------2H3---3-3-----2H3---3------2H3--3---3~~--
 G------------------------------------------------------------------
 D------------------------------------------------------------------
 A------------------------------------------------------------------
 E------------------------------------------------------------------
 "Het regent harder dan ik hebben kan.   Harder dan ik drinken kan." 

 E-----------------------------5-----5-------5---5--------5--5---------
 B-------------------------2H3---3-3-----2H3---3------2H3--3---3-3~~---
 G---------------------------------------------------------------------
 D---------------------------------------------------------------------
 A---------------------------------------------------------------------
 E---------------------------------------------------------------------
 "Het regent harder dan de grond aankan. Harder dan ik hebben kan." 

[ Tab from: http://www.guitartabs.cc/tabs/b/blof/harder_dan_ik_hebben_kan_tab.html ]
 4 SOLO)
 E-----------------------------------------------------------------------------
 B-----------------------------------------------------------------------------
 G-----------7-9P7--9b10r9P7--9P7------------7-9P7--9b10r9~-7-7~~--------------
 D-------7H9----------------------9~~----7H9-----------------------------------
 A--9\-------------------------------------------------------------------------
 E--9\-------------------------------------------------------------------------

 E-----------------------------------------------------------------------------
 B-----------------10--------------------15b16-15b16r15P12---------------------
 G------7-9P7--9b10--10r9-9~-7~~---------------------------14b15r14P12--14P12--
 D--7H9----------------------------X-X-----------------------------------------
 A---------------------------------X-X-----------------------------------------
 E-----------------------------------------------------------------------------
 
 E---------------------------------------------------------------------------
 B--------12--------------12-----12---12~~-----------------------------------
 G--------12--------------12-----12--11~~----11H12-11-----11H12-11-----------
 D--14-12----14-14~----------X-X----------------------12-----------12-12/14--
 A------------------12H14----X-X---------------------------------------------
 E---------------------------------------------------------------------------

 E--------------------------------------------12-----------------------------
 B--------------------------------------------12-----------------------------
 G--------------11-11H12-11~--11-12-12H14-12---------------------------------
 D--12H14-12H14--------------------------------------------------------------
 A---------------------------------------------------------------------------
 E---------------------------------------------------------------------------




TEKST:

Je buien maken vlekken op mijn hagelwit humeur.
Ik heb m'n handen op je heupen, maar m'n hoofd is bij de deur.
Ze zeggen dat het went. Ik heb het geprobeerd.
Maar hoe ik het ook wend of keer. M'n huis beschermt niet meer.

Het regent harder dan ik hebben kan.
Harder dan ik drinken kan.
Het regent harder dan de grond aankan.
Harder dan ik hebben kan.

Je buien zijn de wolken aan mijn hemelsblauw humeur.
Ik heb m'n handen op je heupen, maar m'n hoofd is bij de duer.
Je ogen blijven grijs, ontkennen elke kleur.
Het is alsof hier niemand woont, alsof er niets gebeurt.

Het regent harder dan ik hebben kan.
Harder dan ik drinken kan.
Het regent harder dan de grond aankan.
Harder dan ik hebben kan.

Je buien zijn te donker voor mijn hemelsblauw humeur.
Want mijn hoofd is in de wolken en m'n hand al bij de deur.

Harder dan ik hebben kan.
Harder dan ik drinken kan.
Het regent harder dan de grond aankan.
Harder dan ik hebben kan. (2x)
Comments