Bloc Party - Two More Years Chords & Tabs

 

Two More Years Chords & Tabs

Bloc Party Chords & Tabs

Version: 1 Type: Bass Tab 0 ratings
1 star 2 stars 3 stars 4 stars 5 stars
comments

Two More Years Bass Tab

   
-------------------------------------------------------------------------------
			    Two more years - Bloc party
-------------------------------------------------------------------------------

Tabbed By : Tom Brown
e-mail: YOU_MAKE_ME_DIZZY@hotmail.com

Tuning:GDAE

G|-----------------------------------------------------------------------------|
D|-----------------------------------------------------------------------------|
A|-------------55~-----33~-----------------------------------------------------|
E|--66~-----33~----------------------------------------------------------------|

G|---------------------------------------------------------------------------|
D|---------------------------------------------------------------------------|
A|---------------------------------------------------------------------------|
E|666333336663333666333666333------------------------------------------------|

G|-----------------------------------------------------------------------------|
D|-----------------------------------------------------------------------------|
A|55555555-77777777-88888888-1010101010101010/131313131313---------------------|
E|-----------------------------------------------------------------------------|

G|---------------------------------------------------------------------------|
D|---------------------------------------------------------------------------|
A|55555555-77777777----------------------------------------------------------|
E|-----------------66666666-33333333-----------------------------------------||play above 2 twice
[ Tab from: http://www.guitartabs.cc/tabs/b/bloc_party/two_more_years_btab.html ]
G|---------------------------------------------------------------------------|
D|---------------------------------------------------------------------------|
A|-5---------3-5------33333-5---------3-5------53----------------------------|
E|--11111---1-1-00000--------11111---1-1-00000---51--------------------------|| play twice

G|-----------------------------------------------------------------------------|
D|-----------------------------------------------------------------------------|
A|-----------55~-----33~-------------------------------------------------------|
E|66~-----33~------------------------------------------------------------------|

G|-----------------------------------------------------------------------------|
D|-----------------------------------------------------------------------------|
A|-----------------------------------------------------------------------------|
E|666633333666633333366666333366666--------------------------------------------|

G|---------------------------------------------------------------------------|
D|---------------------------------------------------------------------------|
A 55555555--577777777--788888888--1010101010101010/13131313131313------------|
E|--------35---------57---------68-------------------------------------------|

G|-----------------------------------------------------------------------------|
D|-----------------------------------------------------------------------------|
A|55555555--577777777----------------------------------------------------------|
E|--------35----------66666666-33333333----------------------------------------|


| /  slide up
| \  slide down
| h  hammer-on
| p  pull-off
| ~  vibrato
| +  harmonic
| x  Mute note
===============================================================================
Comments