Bloc Party - Tulips Chords & Tabs

 

Tulips Chords & Tabs

Bloc Party Chords & Tabs

Version: 1 Type: Tab 0 ratings
1 star 2 stars 3 stars 4 stars 5 stars
comments

Tulips Tab

		  Tulips - Bloc party
-------------------------------------------------------------------------------
Tabbed by:Jack D
Email:Park_punk@hotmail.com
Tuning:Standard 
This is only a rough version of this song, bt hopefully it isn't too far off.
Guitar 1 intro/main riff
e|---------------------------------------------------------------------------|
B|----------7-----7------7-----7----------------7-----7----7-----7-----------|
G|-----7--7---7-----7------7-----7-------7---7----7-----7----7-----7---------|
D|---7--7-------7------7-----7-----7---5---5--------5-----5----5-----5-------|
A|---------------------------------------------------------------------------|
E|---------------------------------------------------------------------------|
Guitar 2 Intro 
e|-10-12-13---sb-10-10-------------------------------------------------------|
B|-7--9--11---sb-7--7--------------------------------------------------------|
G|-7--9--11---------7--------------------------------------------------------|
D|---------------------------------------------------------------------------|
A|---------------------------------------------------------------------------|
E|---------------------------------------------------------------------------|
Guitar 2 verse
e|-------10---10----10----10--------12----12------------14--------14------14-|
B|5s7-7-7--7-7---7-7---7-7---7s9-9-9---9-9----9s11-11-11-----11-11---11-11---|
G|---------------------------------------------------------------------------|
D|---------------------------------------------------------------------------|
A|---------------------------------------------------------------------------|
E|---------------------------------------------------------------------------|
Guitar 2 verse build 
e|-------10----10----10----10--------12----12----------14------15------16--17|
B|5s7-7-7---7-7---7-7---7-7---7s9-9-9---9-9--9s11-11-11---11-11---11-11------|
G|---------------------------------------------------------------------------|
D|---------------------------------------------------------------------------|
A|---------------------------------------------------------------------------|
E|---------------------------------------------------------------------------|
Guitar 1 Chorus
e|---------------------------------------------------------------------------|
B|---------7---7---7---7------------7--7--7--7-------7-7-7-7-------7-7-7-7---|
G|---7---7---7---7---7---7-----9--9--9--9--9--9---7-7-7-7-7-7---7-7-7-7-7-7--|
D|-9---9-------9---9---9---9--7--7----7--7--7--7-5-5---5-5-5-5-5-5---5-5-5-5-|
A|---------------------------------------------------------------------------|
E|---------------------------------------------------------------------------|
Guitar 2 Chorus 1 
e|10--10--10---10---10-10-9------12--12--12---12-12-10-10--------------------|
B|--10--10--10---10---------9qs10--10--10--10--------------------------------|
G|---------------------------------------------------------------------------|
D|---------------------------------------------------------------------------|
A|---------------------------------------------------------------------------|
E|---------------------------------------------------------------------------|
Guitar 2 Chorus 1 cont
e|---------------------------------------------------------------------------|
B|-----10----10-----10-10-8-8-8-7-----10---10---10-10-8-8-8-8----------------|
G|-7-7----7-7---7-7----------------77----77---77-----------------------------|
D|---------------------------------------------------------------------------|
A|---------------------------------------------------------------------------|
E|---------------------------------------------------------------------------|
Guitar 2 Chorus 2
e|--------------17------------------------17-15-14-15--------------17--------|
B|--15--15--15-----15-14-15---15--15--15---------------15--15--15----15-14-15|
G|14--14--14--14------------14--14--14--14-----------14--14--14--14----------|
D|---------------------------------------------------------------------------|
A|---------------------------------------------------------------------------|
E|---------------------------------------------------------------------------|
Guitar 2 Chorus 2 cont
e|--------------17-----------------------------------------------------------|
B|--15--15--15-----15-14-15------15----15----15------17---17--17-------------|
G|14--14--14--14------------12s14---14----14----14s16---16--16---------------|
D|---------------------------------------------------------------------------|
A|---------------------------------------------------------------------------|
E|---------------------------------------------------------------------------|
Guitar 2 outro 1 
e|---------------------------------------------------------------------------|
B|---------------------------------------------------------------------------|
G|---------------------------------------------------------------------------|
D|--7-5-4-2-2-0-------5-4----------------------------------------------------|
A|------------------5--------------------------------------------------------|
E|--------------7-5----------------------------------------------------------|
Guitar
e|---------------------------------------------------------------------------|
B|10--10--10-10-8-7--------7-7-8---------------------------------------------|
G|--7---7---7-------9-9-7-7--------------------------------------------------|
D|---7---7---7-------7-7-7---------------------------------------------------|
A|---------------------------------------------------------------------------|
E|---------------------------------------------------------------------------|

Structure 
Guitar1 main riff
Guitar2 intro
Guitar1 main riff
Guitar2 out
Guitar1 chorus
Guitar2 out
Guitar1 main riff
Guitar2 verse + verse build 
Guitar1 chorus
Guitar2 chorus
guitar1 chorus
Guitar2 chorus
guitar1 main riff
guitar2 outro 1
guitar2 outro 2 

Key 
qb-quick bend
qs-quick slide
s-slide
[ Tab from: http://www.guitartabs.cc/tabs/b/bloc_party/tulips_tab.html ]
Comments