Bloc Party - This Modern Love Chords & Tabs

 

This Modern Love Chords & Tabs

Bloc Party Chords & Tabs

Version: 2 Type: Tab 0 ratings
1 star 2 stars 3 stars 4 stars 5 stars
comments

This Modern Love Tab

i seen him play it live this way
[ Tab from: http://www.guitartabs.cc/tabs/b/bloc_party/this_modern_love_tab_ver_2.html ]
E|-----------------|----------------|----------------|----------------|
B|-----------------|----------------|----------------|----------------|
G|--10--10--10--10-|-10--10--10--10-|-10--10--10--10-|-10--10--10--10-|
D|-----------------|----------------|----------------|----------------|
A|-----------------|----------------|8---8---8---8---|9---9---9---8---|
E|9---9---9---9----|9---9---8---8---|----------------|----------------|


E|-----------------|----------------|----------------|
B|-----------------|----------------|----------------|
G|--10--10--10--10-|-10--10--10--10-|-10--10--10--10-|
D|-----------------|----------------|----------------|
A|-----------------|----------------|----------------|
E|9---9---9---9----|9---9---8---8---|6---6---6---6---|
Comments