Bloc Party - So Here We Are Chords & Tabs

 

So Here We Are Chords & Tabs

Bloc Party Chords & Tabs

Version: 2 Type: Tab 0 ratings
1 star 2 stars 3 stars 4 stars 5 stars
comments

So Here We Are Tab

So Here We Are - Bloc Party.
Tabbed By Chris Trenchard. trenchardc@hotmail.com


INTRO:

--7--------7---7-------------7--------7---7-----------    <-|
----10---------10----10--------10---------10----10----      |
-------9-------------9------------9-------------9-----      |
------------------------------------------------------      |
--0--------------------------0------------------------      |
------------------------------------------------------      |
                                                            |
                                                 3 times at beginning,
                                                 just once all other times
                                                            |
--7--------7---7-------------7--------7---7-----------      |
----10---------10----10--------10---------10----10----      |
-------9-------------9------------9-------------9-----      |
------------------------------------------------------      |
--0--------------------------0------------------------      |
------------------------------------------------------    <-|


--9----------9---------------9----------9-------------
-----10----------12---10--------10----------12---10---
---------11------11---11------------11------11---11---
--0--------------------------0------------------------
------------------------------------------------------
------------------------------------------------------

--9----------9---------------9----------9-------------
-----10----------12---10--------10----------12---10---
---------11------11---11------------11------11---11---
--0--------------------------0------------------------
------------------------------------------------------
------------------------------------------------------

return to beginning

Plays through like this for most of the song, but there are some bits
which are different, and at the end it changes completely. Right now,
can't be bothered to work it out. I think this is right though.

IF YOU FIND THIS TOO HARD, TRY THIS INSTEAD:
This is the easier version
[ Tab from: http://www.guitartabs.cc/tabs/b/bloc_party/so_here_we_are_tab_ver_2.html ]
--7--------7---7--------------7---------7---7-------------    <-|
----10----------------10---------10-------------9---10----      |
-------9----------9-----------------9---------------------      |
----------------------------------------------------------      |
----------------------------------------------------------      |
----------------------------------------------------------      |
                                                                |
                                                  3 times at beginning,
                                                  just once all other times
                                                  as above      |
                                                                |
--7--------7---7--------------7---------7---7-------------      |
----10----------------10---------10-------------9---10----      |
-------9----------9-----------------9---------------------      |
----------------------------------------------------------      |
----------------------------------------------------------      |
----------------------------------------------------------    <-|

--9----------9---------------9----------9-----------------
-----10----------12---10--------10----------12---10-------
---------11-------------------------11--------------------
----------------------------------------------------------
----------------------------------------------------------
----------------------------------------------------------

--9----------9---------------9----------9-----------------
-----10----------12---10--------10----------12---10-------
---------11-------------------------11--------------------
----------------------------------------------------------
----------------------------------------------------------
----------------------------------------------------------

This version should be easier than the top, which is the full
version. I don't know whether they have two guitars. It can be
played either way and still sounds good! Enjoy!



Tabbed by Chris Trenchard. comments:trenchardc@hotmail.com
Comments