Bloc Party - So Here We Are Chords & Tabs

 

So Here We Are Chords & Tabs

Bloc Party Chords & Tabs

Version: 1 Type: Tab 0 ratings
1 star 2 stars 3 stars 4 stars 5 stars
comments

So Here We Are Tab

Title: So Here We Are
Artist: Bloc Party
Tab BY: Daniel "Arnni" Greenwood
Comments: This Song is so sweet, it nearly put's you alseep. Its so magical in my
opinion and a great song to learn for finger picking. And one of the best from the
album. i Suggest you go out and buy silent alarm as its a Great Album! This Band is
going to be Big trust me!

Intro
Guitar 1

e|7---7------7---7------7---7------7---7--7----|
B|-10--10-10--10--10-10--10--10-10--10--10-10--|
G|---9---9--9---9---9--9---9---9--9---9---9--9-|    
D|---------------------------------------------|
A|---------------------------------------------|
E|---------------------------------------------|

Guitar 2 Does the Same throughout the whole song

This is Fading In the background

E|---------------------------------------------|
B|---10-12-10---10-12-10---10-12-10---10-12-10-|
G|---------------------------------------------|     
D|---------------------------------------------|
A|-12---------12---------12---------12---------|
E|---------------------------------------------|



main Verse
e|7---7------7---7------7---7------9-----9-----9----9--------|
B|-10--10-10--10--10-10--10--10-10---10----12----10---12-----|
G|---9---9--9---9---9--9---9---9--9-----9-----9----9-----9---|    
D|-----------------------------------------------------------|
A|-----------------------------------------------------------|
E|-----------------------------------------------------------|

 Reapeat the main verse 2 then it shifts up


guitar 1
[ Tab from: http://www.guitartabs.cc/tabs/b/bloc_party/so_here_we_are_tab.html ]
e|7---7------7---7----12----12-----12---------|
B|-10--10-10--10--10----10-----10-----10------|
G|---9---9--9---9---9------9------9------9----|    
D|--------------------------------------------|
A|--------------------------------------------|
E|--------------------------------------------|

Second guitar
E|---------------------------------------------|
B|---10-12-10---10-12-10---10-12-10---10-12-10-|
G|---------------------------------------------|     
D|---------------------------------------------|
A|-12---------12---------12---------12---------|
E|---------------------------------------------|

outro
'I Figure it out 'bit
Guitar 1
e|7---7------7---7----12----12-----12---------|
B|-10--10-10--10--10----10-----10-----10------|
G|---9---9--9---9---9------9------9------9----|    
D|--------------------------------------------|
A|--------------------------------------------|
E|--------------------------------------------|

Guitar 2
E|---------------------------------------------|
B|---10-12-10---10-12-10---10-12-10---10-12-10-|
G|---------------------------------------------|     
D|---------------------------------------------|
A|-12---------12---------12---------12---------|
E|---------------------------------------------|

Little Lead bit, its in the back ground, you can just hear it 

E|------19~---17~--16~-------------------------|
B|---------------------------------------------|
G|---------------------------------------------|     
D|---------------------------------------------|
A|---------------------------------------------|
E|---------------------------------------------|
Comments