Bloc Party - Modern Love Chords & Tabs

 

Modern Love Chords & Tabs

Bloc Party Chords & Tabs

Version: 1 Type: Tab 10 ratings
1 star 2 stars 3 stars 4 stars 5 stars
comments

Modern Love Tab

no one has tabbed a single bit of there work so ill have to do it ;-)
THESE ARE REALLY A GREAT BAND AND THIS IS ONE OF THERE BEST SONGS
SCOTT.


(INTRO & VERSE) (TIMES 2 FOR INTRO)
[ Tab from: http://www.guitartabs.cc/tabs/b/bloc_party/modern_love_tab.html ]
E)-------------------------------------------------------------------------------
A)---3-3-3-3-3-3-2-2-----------------3-3-3-3-3-3-2-2-0-0-0-0---------------------
D)-------------------2-2-2-2-3-3-3-2---------------------------------------------
G)--------------------------------------------------------------------------------
B)----5-5-5-5-5-5-5-5-5-5-5-5-5-5-5-5-5-5-5-5-5-5-5-5-5-5-5-5--------------------
e)-------------------------------------------------------------------------------    

AFTER TWO TIMES THE SECOND GUITAR PLAYS

G)----12--12--12--12--12--12--12--12--12--12--12--12--12--12
B)--13--13--12--13--13--13--12--13--13--13--12--13--13--13     AND REAPEAT THROUGH VERSE

CHOROUS)

D)--10-10---------12---10--10-10-10
G)--------12-10-9----9--------------   AND REAPEAT


Comments