Bloc Party - Little Thoughts Chords & Tabs

 

Little Thoughts Chords & Tabs

Bloc Party Chords & Tabs

Version: 2 Type: Tab 0 ratings
1 star 2 stars 3 stars 4 stars 5 stars
comments

Little Thoughts Tab

   
I finally got this perfect, after using loads of other tabs and watching live stuff.
Where it says 'as needed' just check the CD for how many times you've got to play it.
There's really no need for two guitars on this track, but you could easily add a rythym
if one of your band members refuses to sit out.

intro
e]---------------------------------------------------|
b]---------------------------------------------------|
g]-9-9-9-9-9-9-9--8-8-8-8-8-8-8----------------------|
d]-9-9-9-9-9-9-9--9-9-9-9-9-9-9----------------------|
a]-7-7-7-7-7-7-7--7-7-7-7-7-7-7----------------------|
E]---------------------------------------------------|
  P.M...........................

pre-verse

e]---------------------------------------------------|
b]---------------------------------------------------|
g]--8------------------------------------------------| as needed
d]--9------------------------------------------------|
a]--7------------------------------------------------|
E]---------------------------------------------------|

verse
e]---------------------------------------------------------|
b]---------------------------------------------------------|
g]---------------------------------------------------------|
d]-9-9-9-9-9-9-9-9-9-9-9-9-9-9-9-9-9-9-9-9-9-9-9-9-9-9-9-9-|
a]-7-7-7-7-7-7-7-7-9-9-9-9-9-9-9-X-X-X-X-X-X-X-X-X-X-X-X-X-|
e]-------------------------------9-9-9-9-9-9-9-7-7-7-7-7-7-|

chorus
e]---------------------------------------------------|
b]---------------------------------------------------|
g]-9-9-9-9-8-8-8-8-4-4-4-4-11-11-11-11---------------|    x2
d]---------------------------------------------------|
a]---------------------------------------------------|
e]---------------------------------------------------|

1st time e]---------------------------------------------------|
         b]---------------------------------------------------|
         g]-9-9-9-9-16-16-16-16-11-11-11-11-11-11-11-13-11----|
         d]---------------------------------------------------|
         a]---------------------------------------------------|
         e]---------------------------------------------------|

2nd time e]---------------------------------------------------|
         b]---------------------------------------------------|
         g]-16-16-16-16-16-16-16-16---------------------------|
         d]---------------------------------------------------|
         a]---------------------------------------------------|
         e]---------------------------------------------------|


e]---------------------------------------------------|
b]---------------------------------------------------|
g]-------------------------8-8---8-8----9h11p9-------|
d]-----9-9-----9-9--9h11p9----9-9---9-9--------------|
a]-7-7-----7-7---------------------------------------|
e]---------------------------------------------------|

e]------------------------------------------------------|
b]------------------------------------------------------|
g]-9-8-6-4-16-16-9-9-9-16-16-9-9-9-16-16-9-20-16-13-14--|b
d]------------------------------------------------------|
a]------------------------------------------------------|
e]------------------------------------------------------|
[ Tab from: http://www.guitartabs.cc/tabs/b/bloc_party/little_thoughts_tab_ver_2.html ]
verse 2
e]---------------------------------------------------------|
b]---------------------------------------------------------|
g]---------------------------------------------------------|
d]-9-9-9-9-9-9-9-9-9-9-9-9-9-9-9-9-9-9-9-9-9-9-9-9-9-9-9-9-|
a]-7-7-7-7-7-7-7-7-9-9-9-9-9-9-9-X-X-X-X-X-X-X-X-X-X-X-X-X-|
e]-------------------------------9-9-9-9-9-9-9-7-7-7-7-7-7-|

gtr 2 (only if you want, I prefer without)

  ^ ^ ^ ^ ^ ^ ^ ^ ^ ^

e]-7-7-7-7-7-7-7-7-7-7-7-7-7-7-7-7-7-7-7-7-7-7-7-7-7-7-7-7-|
b]-7-7-7-7-7-7-7-7-7-7-7-7-7-7-7-7-7-7-7-7-7-7-7-7-7-7-7-7-|
g]-8-8-8-8-8-8-8-8-8-8-8-8-8-8-8-8-8-8-8-8-8-8-8-8-8-8-8-8-|
d]-9-9-9-9-9-9-9-9-9-9-9-9-9-9-9-9-9-9-9-9-9-9-9-9-9-9-9-9-|
a]---------------------------------------------------------|
e]---------------------------------------------------------|


chorus again

bridge

e]---------------------------------------------------|
b]---------------------------------------------------|
g]-9~--9-9-9--9-9-9--9-9-9-9-9-9-9-9-9-9-9-----------|
d]-9~--9-9-9--9-9-9--9-9-9-9-9-9-9-9-9-9-9-----------|
a]-7~--7-7-7--7-7-7--7-7-7-7-7-7-7-7-7-7-7-----------|
e]---------------------------------------------------|


e]----------------------------------------------------|
b]----------------------------------------------------|
g]-9-9-9-9-9-9-11-11--11-11-13-13-13-13-13-14-13-11-9-|
d]----------------------------------------------------|
a]----------------------------------------------------|
e]----------------------------------------------------|

e]---------------------------------------------------|
b]---------------------------------------------------|
g]-9-9-9-9-9-9-9-11-11-11-11-6-6-6-6-4-4-4-4-4-4-4-4-|
d]---------------------------------------------------|
a]---------------------------------------------------|
e]---------------------------------------------------|

e]----------------------------------------------------|
b]----------------------------------------------------|
g]-9-9-9-9-9-9-11-11--11-11-13-13-13-13-13-14-13-11-9-|
d]----------------------------------------------------|
a]----------------------------------------------------|
e]----------------------------------------------------|

e]-----12-12-----------------------------------------|
b]---------------------------------------------------|
g]--9------------------------------------------------|   as needed
d]---------------------------------------------------|
a]---------------------------------------------------|
e]---------------------------------------------------|


pre-outro

e]---------------------------------------------------|
b]-10-9-5-2-10-9-5-7-9-5-----------------------------|
g]---------------------------------------------------| x 4
d]---------------------------------------------------|
a]---------------------------------------------------|
e]---------------------------------------------------|

e]---------------------------------------------------|
b]-14-12-5-------------------------------------------|
g]---------------------------------------------------| as needed
d]---------------------------------------------------|
a]---------------------------------------------------|
e]---------------------------------------------------|

outro

e]-------------------------------------------------------------------------------------|
b]-------------------------------------------------------------------------------------|
g]-9-9-9-9-8-8-8-8-6-6-6-6-6-4-4-4-4-4-9-9-9-9-9-9-9-6-6-6-6-6-4-4-4-4-----------------|
d]----------------------------------------------------------------------7--------------|
a]-7-7-7-7-7-7-7-7-4-4-4-4-4-2-2-2-2-2-7-7-7-7-7-7-7-4-4-4-4-4-2-2-2-2--7--------------|
e]----------------------------------------------------------------------5--------------|
Comments