Bloc Party - Helicopter Chords & Tabs

 

Helicopter Chords & Tabs

Bloc Party Chords & Tabs

Version: 2 Type: Tab 1 rating
1 star 2 stars 3 stars 4 stars 5 stars
comments

Helicopter Tab

Bloc Party-Helicopter		

Intro
Guitar 1-Kele	
|------------------------------------------|
|------------------------------------------|
|------------------------------------------|
|-------9-9-7-7-4-4~--------4-4-11-11-9-9--|
|------------------------------------------|
|---7-7------------------------------------|

Guitar 2-Russell
|------------------------------------------|
|------------------------------------------|
|------------------------------------------|
|-------9-9-7-7----------------------------|
|---------------9-9-7-7-9-9-------7--------|
|---7-7---------------------11-11---7------|

Verse	
Guitar 1-Kele	
|-------------------------------------------------|
|-------------------------------------------------|
|-------------------------------------------------|
|--9-9-9-9--9-9-9-9--12-12-12-12--14-14-14-14-----|
|--9-9-9-9--9-9-9-9--12-12-12-12--14-14-14-14-----|
|--7-7-7-7--7-7-7-7--10-10-10-10--12-12-12-12-----|

Guitar 2-Russell
|---------------------------------------------10-10-7------------|
|--------------10-7---7------------------10-7---------10---------|
|--7-7-7-7-7-7------9---9-7--7-7-7-7-7-7-------------------------|
|----------------------------------------------------------------|
|----------------------------------------------------------------|
|----------------------------------------------------------------|

Pre Chorus
Guitar 1-Kele
|-----------------------------------------------------|
|-----------------------------------------------------|
|-----------------------------------------------------|
|--12-12-12-12-12-12-12-12--9-9-9-9-9-9-9-9-----------|
|--12-12-12-12-12-12-12-12--9-9-9-9-9-9-9-9-----------|
|--10-10-10-10-10-10-10-10--7-7-7-7-7-7-7-7-----------|

Guitar 2-Russell
|---------5-------5-------------7-----7---------------|
|---------6-------6-------------7-----7---------------|
|---------7-------7-------------8-----8---------------|
|---------7-------7-------------9-----9---------------|
|-----------------------------------------------------|
|-----------------------------------------------------|

Chorus	
Guitar 1-Kele
|--------------------------------|
|--------------------------------|
|--16-----14-----12-----11-------|
|--16-x8--14-x8--12-x8--11-x8----|
|--14-----12-----10-----9--------|
|--------------------------------|

Guitar 2-Russell	
|--------------------------------|
|--7------7------7------7--------|
|--9b-----9b-----9b-----7--------|
|--------------------------------|
|--------------------------------|
|--------------------------------|

Pre Verse
Guitar 1-Kele	
|------------------------------------------|
|------------------------------------------|
|------------------------------------------|
|-------9-9-7-7-4-4~--------4-4-11-11-9-9--|
|------------------------------------------|
|---7-7------------------------------------|
[ Tab from: http://www.guitartabs.cc/tabs/b/bloc_party/helicopter_tab_ver_2.html ]
Guitar 2-Russell
|------------------------------------------|
|------------------------------------------|
|------------------------------------------|
|-------9-9-7-7----------------------------|
|---------------9-9-7-7-9-9-------7--------|
|---7-7---------------------11-11---7------|

Verse	
Guitar 1-Kele	
|-------------------------------------------------|
|-------------------------------------------------|
|-------------------------------------------------|
|--9-9-9-9--9-9-9-9--12-12-12-12--14-14-14-14-----|
|--9-9-9-9--9-9-9-9--12-12-12-12--14-14-14-14-----|
|--7-7-7-7--7-7-7-7--10-10-10-10--12-12-12-12-----|

Guitar 2-Russell
|----------------------------------------------------------------|
|--------------10-7---7------------------10-7--7---9-------------|
|--7-7-7-7-7-7------9---9-7--7-7-7-7-7-7-------9b--11b-----------|
|----------------------------------------------------------------|
|----------------------------------------------------------------|
|----------------------------------------------------------------|

Pre Chorus
Guitar 1-Kele
|-----------------------------------------------------|
|-----------------------------------------------------|
|-----------------------------------------------------|
|--12-12-12-12-12-12-12-12--9-9-9-9-9-9-9-9-----------|
|--12-12-12-12-12-12-12-12--9-9-9-9-9-9-9-9-----------|
|--10-10-10-10-10-10-10-10--7-7-7-7-7-7-7-7-----------|

Guitar 2-Russell
|---------5-------5-------------7-----7---------------|
|---------6-------6-------------7-----7---------------|
|---------7-------7-------------8-----8---------------|
|---------7-------7-------------9-----9---------------|
|-----------------------------------------------------|
|-----------------------------------------------------|

Chorus	
Guitar 1-Kele
|--------------------------------|
|--------------------------------|
|--16-----14-----12-----11-------|
|--16-x8--14-x8--12-x8--11-x8----|
|--14-----12-----10-----9--------|
|--------------------------------|

Guitar 2-Russell	
|--------------------------------|
|--7------7------7------7--------|
|--9b-----9b-----9b-----7--------|
|--------------------------------|
|--------------------------------|
|--------------------------------|


Solo Section
Guitar 1-Kele
   \  \  \  \  \  \  \  \  \  \  \  \  \  \
|---------------------------------------------------------|
|--12-12-12-12-12-12-12-12-12-12-12-12-12-12-15h-15h------|
|---------------------------------------------------------|         \=tremolo pick
|---------------------------------------------------------|         h=harmonic
|---------------------------------------------------------|
|---------------------------------------------------------|

Guitar 2-Russell
|--7-10-10-------10---10----|
|----------10-10----8-------|
|---------------------------|
|---------------------------|
|---------------------------|
|---------------------------|

Chorus	
Guitar 1-Kele
|--------------------------------|
|--------------------------------|
|--16-----14-----12-----11-------|
|--16-x8--14-x8--12-x8--11-x8----|
|--14-----12-----10-----9--------|
|--------------------------------|

Guitar 2-Russell
|---15-14----15-14--------|
|---------15------15------|
|-------------------------|
|-------------------------|
|-------------------------|
|-------------------------|
Comments