Bloc Party - Helicopter Chords & Tabs

 

Helicopter Chords & Tabs

Bloc Party Chords & Tabs

Version: 1 Type: Chords 0 ratings
1 star 2 stars 3 stars 4 stars 5 stars
comments

Helicopter Chords

   
Guitar 1
Intro

-7-7--------------5-5--------------------------------------|
-----------------------------------------------------------|
-----7-7-5-5-4-4------4-4----------------------------------|
---------------------------6-6-4-4-------------------------|
-----------------------------------------------------------|
-----------------------------------------------------------|
while guitar 2 plays..
Guitar 2
Intro


-7-7-------------------------------------------------------|
-----------------------------------------------------------|
-----7-7-5-5-4-4-2-2-0-0-2-0-4-0---------------------------|
-----------------------------------------------------------|
-----------------------------------------------------------|
-----------------------------------------------------------|
[ Tab from: http://www.guitartabs.cc/tabs/b/bloc_party/helicopter_crd.html ]
verse
-7---------------------------------------------------------|
-9-x4. rest then repeat----"North to South"---5-------7----|
-9--------------------------------------------7-x4----9----| EMPTY!
----------------------------------------------7-------9----|
-----------------------------------------------------------|
-----------------------------------------------------------|
North to South
Running on, Bravado
As if to say, as if to say
He doesn't like chocolate
He's born a liar, he'll die a liar
Some things will never be different

                          D
-2---------------------------|
-4--2------------------------|
-4--4---------------------0--|
-3--4---STOP BEIN!--------2--|
-2--3---------------------3--|There's a time and there's a place
----2---------------------2--|

Stop being so American
There's a time and there's a place
So James Dean
So blue jeans
Gonna save the world
He's gonna

Guitar 1
-7----5---3------|
-9----7---5------|      Are you hoping for a miracle?
-9----7---5------|
-----------------|
-----------------|
-----------------|

on the third "Are you hoping for a miracle?"
guitar 2 comes in with

--------------------|
-2----4----5--------|
-4----6----7--------|
-4----6----7--------|
--------------------|
--------------------|

Three out of five, three out of five (it's not enough)
Six out of ten
Better luck next time
Just like his Dad, just like his Dad (the same mistakes)
Some things will never be different
Hungry and dumb, hungry and dumb (so wait in line)
Queuing up for some more junk food
It's not my fault, it's not my fault (just this once)
They're getting so much younger

Why can't you be more European
Bastard child of guilt and shame
Bury your head in the sand
I'm thinking six, six, six
I'm thinking six

Are you hoping for a miracle?
It's not enough.
Comments