Blizzard - Warlock Chords & Tabs

 

Warlock Chords & Tabs

Blizzard Chords & Tabs

Version: 2 Type: Tab 0 ratings
1 star 2 stars 3 stars 4 stars 5 stars
comments

Warlock Tab

=== The Eternal Idol's Blizzard Tablature

The Warlock
Blizzard - Blizzard (1993)

|---------------------------------------------|
|---------------------5~-5~-------------------|
|---------------------5~-5~-------------------|
|-7---/10---7--------------------5------------|
|-7---/10---7----------------5h7---7-5p3------|
|-5---/8----5----------------------------5p3--|

|--------------------------------------------------------------|
|--------------------------------------------------------------|
|-----------------------------------------------5--------------|
|----------------------------5-5h7----7p5---5h7---7--7p5---5h7-|
|3h5-3h5p3h5-3h5-3h5p3h5-5h7--------------7--------------7-----|
|--------------------------------------------------------------|

|----------------------------------------------------------|
|----5-8---------------------------------------------------|
|-7^-----7^-^p5-7p5---------------------5------------------|
|-------------------7-5h7--------5--5h7----7p5-----5h7-----|
|----------------------------5h7----------------7----------|
|----------------------------------------------------------|

|----------------||--------||---------||---------|
|----------------||--------||-trill---||---------|
|----------------||-5~~~~~-||---------||--5~~~~--|
|-7--7------8--7-||--------||-5h7~~~~-||---------|
|-7--7------8--7-||--------||---------||---------|
|-5--5------6--5-||--------||---------||---------|
[ Tab from: http://www.guitartabs.cc/tabs/b/blizzard/warlock_tab_ver_2.html ]
Solo:
|--------------------------------------------5-8p5-8p5-----|
|------------------------------------------------------8p5-|
|--trill--------------------------------5h7----------------|
|---------------5h7p5---5h7---/---7p5-7--------------------|
|-3-(5)~~---5h7-------7------------------------------------|
|----------------------------------------------------------|

|--------------------------5-------------------------------|
|-----8p5----------------5----8-5--------------------------|
|-7p5-----------------7^----------^7p5h7-7p5---5--7^--7^~--|
|--------------------------------------------7-------------|
|----------------------------------------------------------|
|----------------------------------------------------------|

|------5---------------------------------------------------|
|----5----8-5----------------------------------------------|
|-7^----------^7p5h7-7p5----5--------------5---------------|
|------------------------7------7p5----5h7---7p5---5h7~~~--|
|-----------------------------------7------------7---------|
|----------------------------------------------------------|

|------------------------------------------|
|------------------------------------------|
|-------------------------5----------------|
|-----5------------5--5h7----7p5----7--7---|
|-5h7----5--3--5/7---------------7---------|
|------------------------------------------|

|----------------------------------------------------------------------------------|
|-----------------5~-5~------------------5-5-----------------5-5-------------------|
|-----------------5~-5~------------------5-5-----------------5-5-------------------|
|-7---/10---7----------------5-------------------5-------------------5-------------|
|-7---/10---7------------5h7---7-5p3---------5h7---7-5p3---------5h7---7-5p3-------|
|-5---/8----5------------------------5p3-----------------5p3-----------------5p3-5-|
Comments