Blizzard - Unhealing Youth Chords & Tabs

 

Unhealing Youth Chords & Tabs

Blizzard Chords & Tabs

Version: 1 Type: Tab 0 ratings
1 star 2 stars 3 stars 4 stars 5 stars
comments

Unhealing Youth Tab

   
##################################################################################
# This file is the author's own work and represents their interpretation of the  #
# song. You may only use this file for private study, scholarship, or research.  #
##################################################################################

Verse

This is not what I am,
A               G/B  C             G              D
I________________________have a very unhealing youth

Tiffany's Solo:
e-|---14vvvvvv-----12-14>15>14------------------------------------------------|
B-|------------------------------15>17vvvvvvvvvv>15--15-14--------------------|
G-|---------------------------------------------------------14----------------|
D-|-------------------------------------------------------------14\12vvvvvv---|
A-|---------------------------------------------------------------------------|
E-|---------------------------------------------------------------------------|

e-|--14>12--14>(15)>14--------------------------------------------------------|
B-|-----------------------15>17---------15--14--------------------------------|
G-|---------------------------------------------14------------------/12vvvvvv-|
D-|-------------------------------------------------14\12--11--9--7-----------|
A-|---------------------------------------------------------------------------|
E-|---------------------------------------------------------------------------|

e-|---------------------------------------------------------------|
B-|---------------------------------------------------------------|
G-|---11--------------11\9---9\7vvvvv----9>7------7---9---11>12---|
D-|----------14--12----------------------------9------------------|
A-|---------------------------------------------------------------|
E-|---------------------------------------------------------------|

e-|---15-14-12---------------------------------------------------|
B-|------------15-12---------------------------------------------|
G-|------------------12------------------------------------------|
D-|---------------------12vvvvvvvv--10\9vvvvvvv---10\9\7vvvvv----|
A-|--------------------------------------------------------------|
E-|--------------------------------------------------------------|

                               v-- strike note
e-|-----------------------------------------------------------|
B-|-----------------------------------------------------------|
G-|-11>(12)vvvvvvvv--9>(11)===(11)==>9>7----------------------|
D-|---------------------------------------7/9\7vvvvvvvvvvv\---|
A-|-----------------------------------------------------------|
E-|-----------------------------------------------------------|


Cause I am grown, and my dream is gone
A               G/B  C          G                 D
and I___________________, have a very unhealing youth

Billy's Solo:
|---------------------------------------------------------------|
|---------------------------------------------------------------|
|--7--9--9>(11)vvvvvv--9>(11)>9>7---7--9--9--7-------7vvvvvvv---|
|---------------------------------9-------------9--9------------|
|---------------------------------------------------------------|
|---------------------------------------------------------------|

|-------------------------------------------10------------------------------|
|--------10------10--12--12>(15)>12>10--12----------------------------------|
|---/11------11---------------------------------------7--9--9>(10)>9>7------|
|----------------------------------------------------------------------9vvvv|
|---------------------------------------------------------------------------|
|---------------------------------------------------------------------------|

|--------------------------------------------------------------------------|
|----10>7-------7----------------------------------------------------------|
|-----------9-------9---7-------------------------------7------------------|
|--------------------------9vvvvvvvvvv--------7---7--9-----9>7---9vvvvvv---|
|-----------------------------------------/9-------------------------------|
|--------------------------------------------------------------------------|

|--9--9>(10)----7-------7---------------------------|
|-------------------10-----10>(12)vvv----10>7-------|
|-----------------------------------------------9---|
|---------------------------------------------------|
|---------------------------------------------------|
|---------------------------------------------------|

|-------7--------------------------------------------------------|
|--7--7---10>7---------------------------------------------------|
|--------------9>(11)>9>7---9-7----------------------------------|
|-------------------------9-----9-7------------------------------|
|-----------------------------------9-8-7-5---5vvvvvvvvvvvvvv----|
|-------------------------------------------7--------------------|
[ Tab from: http://www.guitartabs.cc/tabs/b/blizzard/unhealing_youth_tab.html ]
|--------------------------7-------------------------------------------------|
|------------------------7---10>7--------------------------------------------|
|--7-7-7vvvvvvv---9>(11)----------9>(11)>9>7---9-7---------------------------|
|--------------------------------------------9-----9>7-----------------------|
|------------------------------------------------------9\7-5-7>5---5--7-7/9--|
|----------------------------------------------------------------7-----------|

|----------------------------7----------------------------7-----------------|
|--------------------------7---10--------7--------------7---10>7------------|
|-------------7---7-9>(11)--------9>(11)---7--9--9>(11)----------9>(11)>9>7-|
|--7-7-7--9>7---9-----------------------------------------------------------|
|---------------------------------------------------------------------------|
|---------------------------------------------------------------------------|

|----------------------------------------------------------------------------|
|---------------------------7--------------7-7-7------------------7-7-7------|
|----9-7--------------------7--------------7-7-7------------------7-7-7------|
|--9-----9-7----------------7--9vvvvvvv----7-7-7--"9"vvvvvvvvvv---7-7-7--9vvv|
|------------9-8-7-5---5>0---------------------------------------------------|
|--------------------7-------------------------------------------------------|

|---------------------------------------------7------------------------|
|--7---------------------------------------------10>7--10>(12)====>10--|
|--7----9>(11)>9>7-----7--9--9>(11)vvvvvvvv----------------------------|
|-----7-------------9--------------------------------------------------|
|----------------------------------------------------------------------|
|----------------------------------------------------------------------|

|----------7-------------------------------------------------------|
|--------7---10>7--------------------------------------------------|
|-9>(11)----------9>(11)>9>7-9>7---7---------------------------7---|
|--------------------------------9---9>7-9>7---7------------9--7---|
|--------------------------------------------9---9-8-7-------------|
|------------------------------------------------------10-7--------|

|-----------------------------------------------------------------------|
|----------7-----7>(8)>7--------------------------7-----------------7---|
|--------7-7-----7>(8)>7-----------------7>9>7----7-----------------7---|
|--9-7-9---7-----7>(8)>7-7vvvvvv-7>9------------9---9>7-----7-9>7>9-----|
|--------------------------------------------------------9--------------|
|-----------------------------------------------------------------------|

|-----------------------------------7-----17-17-17>(19)vvv--17-19-21-21>(22)vv|
|-------7---7---7--7------7---7--7--7-----------------------------------------|
|-9>7---7---7---7--7----7-7---7--7--7-----------------------------------------|
|-----9-----7-----------------------7-----------------------------------------|
|-----------------------------------------------------------------------------|
|-----------------------------------------------------------------------------|

|--21>(22)vvv-21-21>(22)>21--21>(22)-21>(22)-21>(22)>21--19>21>19-19-19\---|
|--------------------------------------------------------------------------|
|--------------------------------------------------------------------------|
|--------------------------------------------------------------------------|
|--------------------------------------------------------------------------|
|--------------------------------------------------------------------------|

|-----------------------------------------------------------------------------|
|-17-17-17--17>(19)>17>15----17-17-17vvvvvv---15--17-17>(18)>17>15vvv---------|
|-------------------------16-----------------------------------------16-16-16-|
|-----------------------------------------------------------------------------|
|-----------------------------------------------------------------------------|
|-----------------------------------------------------------------------------|

|----------------------------10---------10----12-12>(13)-10-12-------12--|
|--------------------10>(12)----10>(12)----10------------------12-12-----|
|--14-16vvv--------------------------------------------------------------|
|-----------14-12--------------------------------------------------------|
|-----------------14-----------------------------------------------------|
|------------------------------------------------------------------------|

|-------------------------------------------------------------|
|-12>(15)>12--12-10---------------------------------------7---|
|-------------------9>(11)>9>0--9>7---7-9>7---------------7---|
|-----------------------------------9-------9-7---------------|
|-----------------------------------------------9-8-7-5-------|
|-------------------------------------------------------------|

|-----------------------------------7--7--7--7---7---7---7--7-7--7---7--7--|
|---7--7--7--7--7-----7---7---7--7--7--7--7--7---7---7---7--7-7--7---7--7--|
|---7--7--7--7--7-----7---7---7--7-----------------------------------------|
|-------------------9---9---9----------------------------------------------|
|--------------------------------------------------------------------------|
|--------------------------------------------------------------------------|

|---7-----------------------------------------------||
|------10-------------------------------------------||
|----------9>(11)-9--7------------------------------||
|----------------------9-9-9-7----7-7>9-9>7-9vvvvv--||
|---------------------------------------------------||
|---------------------------------------------------||
Comments