Blizzard - The Sickness Chords & Tabs

 

The Sickness Chords & Tabs

Blizzard Chords & Tabs

Version: 1 Type: Tab 0 ratings
1 star 2 stars 3 stars 4 stars 5 stars
comments

The Sickness Tab

The Sickness Part 2
Blizzard  -  Captured(Disc1)  (1991)

|------------------------------------------------------------------
|---------------------------------|--------------------------------
|------9---12-----11-12--7-9--9---|-------9---14---11--7-9---------
|------9---12-----11-12--7-9--9---|-------9---14---11--7-9---------
|------7---10------9-10--5-7--7---|-------7---12----9--5-7---------
|--0-0----------------------------|---0-0--------------------------

during verse
Fill 1:        Fill 2:
|------------||------------------------
|------------||------------------------
|-7--7--/9---||------------------------
|-7--7--/9---||------------------------
|-5--5--/7---||-----5-----7-----7------
|------------||-5h7---5h7---5h7-0------
[ Tab from: http://www.guitartabs.cc/tabs/b/blizzard/the_sickness_tab.html ]
"And its the sign of the southern sickness..."
|----------------------------------------------------------
|----------------------------------------------------------
|----------------------------------------------------------
|--12--11--9---7---9---------------------------------------
|--10---9--7---5---7---------------------------------------
|----------------------------------------------------------

"Fade away, fade away..."
|-------------------------|---------------------|-----------------
|-------------------------|---------------------|-----------------
|-2-----------------------|-2-------------------|-----------------
|-2---------------------5-|-2-------------------|-14--12-12--10---
|-0---------------3---5-3-|-0----------3---3-5--|-12--10-10---8---
|-------3~---2~---1---3---|----3~--2~--1---1-3--|-----------------
Comments