Blizzard - The Sickness Part 1 Voodoo Chords & Tabs

 

The Sickness Part 1 Voodoo Chords & Tabs

Blizzard Chords & Tabs

Version: 1 Type: Tab 0 ratings
1 star 2 stars 3 stars 4 stars 5 stars
comments

The Sickness Part 1 Voodoo Tab

The Sickness Part 1
Blizzard  -  Captured(Disc1) (1999)

|---------|---------------------|--------------------|
|---------|---------------------|--------------------|
|-----5p0-|-------5---7---------|---7---5----------5-|
|-0h5-----|-7-7-7-5---5-----0h5-|---7---5---7--0h5---|
|---------|-0-0-0---0---0h5-----|-0---0--------------|
|---------|---------------------|--------------------|

|---------------------|--------------------|
|-------------------5-|--------------------|
|--------5---7------5-|----------------5p0-|
|--7-7---5---5--0h5---|--7-7---7---0h5-----|
|--0-0-0---0----------|--0-0---0-----------|
|---------------------|--------------------|

|----------------------|---------------------------|
|----------------------|---------------------------|
|----------------------|---------------------------|
|--7-7--7----7-7--7----|--5-5-5-2---------5-5-5-2--|
|--5-5--5----5-5--5----|--3-3-3-0---------3-3-3-0--|
|---------3~--------2~-|---------------------------|

|1.---->		    |2.->trills 
|---------------------------|--------------------------------------|
|---8--8-8--8-8--8-8--------|--------------------------------------|
|---7--7-7--7-7--7-7--------|-5(7)--4(6)--3(5)---------------------|
|---------------------5^5/x-|-----------------5p5/5(7)-5(7)--------|
|---------------------------|-------------------------------7-3(5)-|
|---------------------------|--------------------------------------|
[ Tab from: http://www.guitartabs.cc/tabs/b/blizzard/the_sickness_part_1_voodoo_tab.html ]
|-------------|-5h8p5--------------------------------858---------------|
|-------------|------8-5h8p5----------------------585---858---6^(8)6p5-|
|-------------|-------------7-5h7p5--------------5---------7p5---------|
|-------------|--------------------7-5h7p5--5h7p5----------------------|
|-------5-4-3-|---------------------------7----------------------------|
|-5^^^5-------|--------------------------------------------------------|

|-------------------------------------------------------------------------|
|--8-7-6-5-5--------5-----------------------------------------------------|
|---------8-8-7p5-7---5------------------------------2-----2--2-4^2--2--2-|
|----------------------7-5---7-5-7---------------4-4---4-4---4-----4--4---|
|--------------------------7-------6p53-4-5------------------------------|
|--------------------------------------------5---------------------------|

|-------------------------------------------------------------------|
|--------5-4-3--3-2----------------5-8-7-6p5---5--------5-----------|
|-4^-242------5-----5-4-2----9^^^8-----------7---7^-5-7---5-------8-|
|-------------------------4---------------------------------7-\---|
|-------------------------------------------------------------------|
|-------------------------------------------------------------------|

|-585----------------------------8----10^(12)10-8--------------8------------|
|-----8-585------------------8/10-10p8------------10-8^(10)-10---5h8--------|
|-----------7-575-----5---7^5----------------------------------------5h75h7-|
|-----------------7-7---5---------------------------------------------------|
|---------------------------------------------------------------------------|
|---------------------------------------------------------------------------|

			     trill~~~~
|--------------------------5-------------|
|---5------------10p8-5------------------|
|-7---5-----------------7---5(7)---------|
|-------7-7\---------------------------|
|----------------------------------------|
|----------------------------------------|
Comments