Blizzard - The Edge Chords & Tabs

 

The Edge Chords & Tabs

Blizzard Chords & Tabs

Version: 1 Type: Tab 0 ratings
1 star 2 stars 3 stars 4 stars 5 stars
comments

The Edge Tab

The Edge
Blizzard  -  Captured(Disc1)  (1999)

|------------------------------------------
|------------------------------------------
|-------0-2---0-----------------0-2---0----
|-----4-----4-----------------4-----4------
|---2-----------------------2--------------
|-0-----------------------0----------------

|----------0-----0------------------------|--5--------------
|--------0---0---------------5---6--------|----5------------
|------5-------5-----------5-------5------|------5----------
|----7-------------------7-----------7----|--------7--------
|--0-------------------0------------------|-----------------
|-----------------------------------------|-----------------

|------------------------------------------------------------
|------------------------------------------------------------
|--9-------12-11--7-7-------9-----1211----14-----7----------
|--9-------12-11--7-7-------9-----1211-12-14-----7----------
|--7-------10--9--5-5-------7-----10-9-12-12-----5----------
|--0------------------------0-----------10-------------------
[ Tab from: http://www.guitartabs.cc/tabs/b/blizzard/the_edge_tab.html ]
|--------------------------------------------------------
|--------------------------------------------------------
|--9-------12-11--7-7--------7-6-5----12---7-------------
|--9-------12-11--7-7--------7-6-5----12---7--2----------
|--7-------10--9--5-5--------5-4-3----10---5--2----------
|--0------------------------------------------0----------

|-----------------------------------------------------------------------
|-----------------------------------------------------------------------
|----------------------------------------------------------5-5-4--------
|-------4-5-4h5p4----------4-5-7--5p4----------4-5-4h5p4---5-5-4-5-4-2--
|-7--7------------5--7--7-------------5--7--7------------5-3-3-2-5-4-2--
|-0------------------0-------------------0-----------------------3-2-0--

|--------------------------------------------------------
|--------------------------------------------------------
|--9-------12-11--7-7--------7-6-5----12---7-------------
|--9-------12-11--7-7--------7-6-5----12---7--2----------
|--7-------10--9--5-5--------5-4-3----10---5--2----------
|--0------------------------------------------0----------

|-------------------------------------------------------
|-------------------------------------------------------
|-------------------------------------------------------
|-------4-5-4h5p4----------4-5-7--5p4----------4-5-4h5p4
|-7--7------------5--7--7-------------5--7--7-----------
|-0------------------0-------------------0--------------
Comments