Blizzard - The Cryer Chords & Tabs

 

The Cryer Chords & Tabs

Blizzard Chords & Tabs

Version: 1 Type: Tab 0 ratings
1 star 2 stars 3 stars 4 stars 5 stars
comments

The Cryer Tab

   
THE CRYER
Blizzard
(T. Agusto)

Intro:  (fade in)

         D
E-|-----------------------------------------------------|
B-|-----------------------------------------------------|
G-|-----------------------------------------------------|
D-|-------2h3h4-----------------------------------------|
A-|--------------------------------------3p2p0----------|
E-|-----------------------------------------------------|


Verse 1: 

        D(#4)            D(b5)             D(#4)            D(b5)             D
E-|-----5--5--5-5-5-5----4--4--4-4-4-4-----5--5--5-5-5-5----4--4--4-4-4-4-----2--------|
B-|-----3--3--3-3-3-3----3--3--3-3-3-3-----3--3--3-3-3-3----3--3--3-3-3-3-----3--------|
G-|-----2--2--2-2-2-2----2--2--2-2-2-2-----2--2--2-2-2-2----2--2--2-2-2-2-----2--------|
D-|-----0--0--0-0-0-0----0--0--0-0-0-0-----0--0--0-0-0-0----0--0--0-0-0-0-----0--------|
A-|------------------------------------------------------------------------------------|
E-|------------------------------------------------------------------------------------|

      Dsus2		                 G     G/F#  Em
E-|----2p0-2---------------------------------------------------------------------------|
B-|--------------3---------------------------------------------------------------------|
G-|------------------2---3---4---------------------------------------------------------|
D-|------------------------------------------------------------------------------------|
A-|----------------------------------------------------0--4--0--5--0--6--0--7---0---7--|
E-|---------------------------------3-----2----0---------------------------------------|

Verse 2:

        D(#4)            D(b5)             D(#4)            D(b5)             D
E-|-----5--5--5-5-5-5----4--4--4-4-4-4-----5--5--5-5-5-5----4--4--4-4-4-4-----2--------|
B-|-----3--3--3-3-3-3----3--3--3-3-3-3-----3--3--3-3-3-3----3--3--3-3-3-3-----3--------|
G-|-----2--2--2-2-2-2----2--2--2-2-2-2-----2--2--2-2-2-2----2--2--2-2-2-2-----2--------|
D-|-----0--0--0-0-0-0----0--0--0-0-0-0-----0--0--0-0-0-0----0--0--0-0-0-0-----0--------|
A-|------------------------------------------------------------------------------------|
E-|------------------------------------------------------------------------------------|

       Dsus2		           G     G/F#  Em
E-|----2p0-2-----------------------------------------------------------------------------|
B-|---------------3----------------------------------------------------------------------|
G-|-------------------2---3---4----------------------------------------------------------|
D-|--------------------------------------------------------------------------------------|
A-|---------------------------------------------------0--4--0--5--0--6--0--7---0---7-----|
E-|--------------------------------3------2----0-----------------------------------------|

Verse 3:
[ Tab from: http://www.guitartabs.cc/tabs/b/blizzard/the_cryer_tab.html ]
        D(#4)            D(b5)             D(#4)            D(b5)             D
E-|-----5--5--5-5-5-5----4--4--4-4-4-4-----5--5--5-5-5-5----4--4--4-4-4-4-----2--------|
B-|-----3--3--3-3-3-3----3--3--3-3-3-3-----3--3--3-3-3-3----3--3--3-3-3-3-----3--------|
G-|-----2--2--2-2-2-2----2--2--2-2-2-2-----2--2--2-2-2-2----2--2--2-2-2-2-----2--------|
D-|-----0--0--0-0-0-0----0--0--0-0-0-0-----0--0--0-0-0-0----0--0--0-0-0-0-----0--------|
A-|------------------------------------------------------------------------------------|
E-|------------------------------------------------------------------------------------|

       Dsus2		            G     G/F#  Em
E-|----2p0-2------------------------------------------------------------------------------|
B-|--------------3------------------------------------------------------------------------|
G-|------------------2---3---4------------------------------------------------------------|
D-|---------------------------------------------------------------------------------------|
A-|----------------------------------------------------0--4--0--5--0--6--0--7---0---7-----|
E-|---------------------------------3------2----0-----------------------------------------|

Verse 4:
        D(#4)            D(b5)             D(#4)            D(b5)             D
E-|-----5--5--5-5-5-5----4--4--4-4-4-4-----5--5--5-5-5-5----4--4--4-4-4-4-----2--------|
B-|-----3--3--3-3-3-3----3--3--3-3-3-3-----3--3--3-3-3-3----3--3--3-3-3-3-----3--------|
G-|-----2--2--2-2-2-2----2--2--2-2-2-2-----2--2--2-2-2-2----2--2--2-2-2-2-----2--------|
D-|-----0--0--0-0-0-0----0--0--0-0-0-0-----0--0--0-0-0-0----0--0--0-0-0-0-----0--------|
A-|------------------------------------------------------------------------------------|
E-|------------------------------------------------------------------------------------|

       Dsus2		          G     G/F#  Em
E-|----2p0-2-----------------------------------------------------------------------------|
B-|--------------3-----------------------------------------------------------------------|
G-|------------------2---3---4-----------------------------------------------------------|
D-|--------------------------------------------------------------------------------------|
A-|---------------------------------------------------0--4--0--5--0--6--0--7---0---7-----|
E-|---------------------------------3------2----0----------------------------------------|

Solo:
       D
         UB	       grad. B	  UB		          UB         grad. B       UB
E-|-----------------------------------------------------------------------------------|
B-|---10----------------------------9-------------10-------------------------9--------|
G-|---12-(14)--------14-(16)----11-(13)-----------12-(14)--------14-(16)----11-(13)---|
D-|-----------------------------------------------------------------------------------|
A-|-----------------------------------------------------------------------------------|
E-|-----------------------------------------------------------------------------------|

       B R                          B           B              R     B
E-|-------------------------------------------------------------------------------|
B-|---7(8)7--7p5--7----8p7----8p7--9(10)------12(14)*-------(14)12--8(10)---------|
G-|-------------------------------------------------------------------------------|
D-|-------------------------------------------------------------------------------|
A-|-------------------------------------------------------------------------------|
E-|-------------------------------------------------------------------------------|
					            	*hold bend (with echo)
	   R                B R    B              fade out
E-|-----------------------------------------------------|
B-|---(10)8p7--------8p7-8(9)8p7-8(9)-------------------|
G-|-----------------------------------------------------|
D-|-----------------------------------------------------|
A-|-----------------------------------------------------|
E-|-----------------------------------------------------|
Comments