Blizzard - Strange Winds Chords & Tabs

 

Strange Winds Chords & Tabs

Blizzard Chords & Tabs

Version: 1 Type: Tab 0 ratings
1 star 2 stars 3 stars 4 stars 5 stars
comments

Strange Winds Tab

##################################################################################
# This file is the author's own work and represents their interpretation of the  #
# song. You may only use this file for private study, scholarship, or research.  #
##################################################################################

Tabulature for "Strange Wings"
Off the album "Captured"
Written by Blizzard
--------------------------------------------------------------------------------
                                                                     four times
E-]----------------------------|-----------------------------------------------|
B-]----------------------------|------------------------------------s----------|
G-]----7--7---10-10----3--3----|o------7--7---10-10----3--3----3--3--5--5----o|
D-]----7--7---10-10----3--3----|o------7--7---10-10----3--3----3--3--5--5----o|
A-]----5--5----8--8----1--1----|-------5--5----8--8----1--1----1--1--3--3-----|
E-]----------------------------|-----------------------------------------------|

                                             She is a native... 
E-]----------------------------|--------------1--------------8-------8---------|
B-]----------------------------|--------------3--------------6-----------------|
G-]----7--7---10-10----3--3----|--------------2--------------5----------5------|
D-]----7--7---10-10----3--3----|---0----0-0-------0----0-0---------------------|
A-]----5--5----8--8----1--1----|-----------------------------------------------|
E-]----------------------------|-----------------------------------------------|

     Skies,....                                      I, I caught a glimpse...
E-]-------------1------------------------|-------------1-----------8-----8-----|
B-]-------------3-------------6--3---0--|-------------3-----------6-----------|
G-]-------------2-------------5--2---1--|-------------2-----------5--------5--|
D-]--0---0-0-------0---0-0---------------|---0---0-0-----0---0-0---------------|
A-]--------------------------------------|-------------------------------------|
E-]--------------------------------------|-------------------------------------|

     Eyes.....                                       atop a black winged...
E-]-------------1------------------------|-------------1-----------8-----8-----|
B-]-------------3-------------6--3---0--|-------------3-----------6-----------|
G-]-------------2-------------5--2---1--|-------------2-----------5--------5--|
D-]--0---0-0-------0---0-0---------------|---0---0-0-----0---0-0---------------|
A-]--------------------------------------|-------------------------------------|
E-]--------------------------------------|-------------------------------------|

        She throws her head back............Night
E-]-------------1------------------------|-------------------------------------|
B-]-------------3-------------6--3---0--|-------------------------------------|
G-]-------------2-------------5--2---1--|---3---------------------------------|
D-]--0---0-0-------0---0-0---------------|---3-----3-3-3-3--3-3-3-3---5---5----|
A-]--------------------------------------|---1-----1-1-1-1--1-1-1-1---3---3----|
E-]--------------------------------------|-------------------------------------|
[ Tab from: http://www.guitartabs.cc/tabs/b/blizzard/strange_winds_tab.html ]
                                                                     Four times
E-]----------------------------------------------------------------------------|
B-]----------------------------------------------------------------------------|
G-]o---------7----7-----10---10------3----3------3----3--5----5--------------o|
D-]o---------7----7-----10---10------3----3------3----3--5----5--------------o|
A-]----------5----5------8----8------1----1------1----1--3----3---------------|
E-]----------------------------------------------------------------------------|
                      
       Cries         oh...                    I       followed her
E-]----------------------------|--------------1--------------8-------8---------|
B-]----------------------------|--------------3--------------6-----------------|
G-]----7--7---10-10----3--3----|--------------2--------------5----------5------|
D-]----7--7---10-10----3--3----|---0----0-0-------0----0-0---------------------|
A-]----5--5----8--8----1--1----|-----------------------------------------------|
E-]----------------------------|-----------------------------------------------|

       to the brink of dawn       yeah               She,  she took.......
E-]-------------1------------------------|-------------1-----------8-----8-----|
B-]-------------3-------------6--3---0--|-------------3-----------6-----------|
G-]-------------2-------------5--2---1--|-------------2-----------5--------5--|
D-]--0---0-0-------0---0-0---------------|---0---0-0-----0---0-0---------------|
A-]--------------------------------------|-------------------------------------|
E-]--------------------------------------|-------------------------------------|

       Yeah                                          She's still a .......
E-]-------------1------------------------|-------------1-----------8-----8-----|
B-]-------------3-------------6--3---0--|-------------3-----------6-----------|
G-]-------------2-------------5--2---1--|-------------2-----------5--------5--|
D-]--0---0-0-------0---0-0---------------|---0---0-0-----0---0-0---------------|
A-]--------------------------------------|-------------------------------------|
E-]--------------------------------------|-------------------------------------|

       I don't know why I turned......       Sky
E-]-------------1------------------------|-------------------------------------|
B-]-------------3-------------6--3---0--|-------------------------------------|
G-]-------------2-------------5--2---1--|---3---------------------------------|
D-]--0---0-0-------0---0-0---------------|---3-----3-3-3-3--3-3-3-3---5---5----|
A-]--------------------------------------|---1-----1-1-1-1--1-1-1-1---3---3----|
E-]--------------------------------------|-------------------------------------|

                                                                     four times
E-]----------------------------------------------------------------------------|
B-]----------------------------------------------------------------------------|
G-]o---------7----7-----10---10------3----3------3----3--5----5--------------o|
D-]o---------7----7-----10---10------3----3------3----3--5----5--------------o|
A-]----------5----5------8----8------1----1------1----1--3----3---------------|
E-]----------------------------------------------------------------------------|
                        

            Cries...                                     oh.   solo-->
E-]-----------------------------------------------------------|----------------|
B-]-----------------------------------------------------------|----------------|
G-]---------7------7--------10------10----------3--------3----|----------------|
D-]---------7------7--------10------10----------3--------3----|----------------|
A-]---------5------5---------8-------8----------1--------1----|----------------|
E-]-----------------------------------------------------------|---1~~ --3~~ ---|

                                                                   three times
E-]----------------------------------------------------------------------------|
B-]----------------------------------------------------------------------------|
G-]o--------------------------------------------------3-------5---------------o|
D-]o----------5----5----5------3-------5----5---------3-------5---------------o|
A-]-----------5----5----5------3-------5----5---------1-------3----------------|
E-]-----------3----3----3------1-------3----3----------------------------------|

E-]--------------------------------|-------------------------------------------|
B-]--------------------------------|-------------------------------------------|
G-]--------------------------------|-------------------------------------------|
D-]----5--5--5--3----5--5--5--3----|-----7-7-7-7----7-7----7-7-7-7----7-7------|
A-]----5--5--5--3----5--5--5--3----|-----7-7-7-7----7-7----7-7-7-7----7-7------|
E-]----3--3--3--1----3--3--3--1----|-----5-5-5-5----5-5----5-5-5-5----5-5------|
                                                                   
Comments