Blizzard - Spine Tingler Chords & Tabs

 

Spine Tingler Chords & Tabs

Blizzard Chords & Tabs

Version: 1 Type: Tab 0 ratings
1 star 2 stars 3 stars 4 stars 5 stars
comments

Spine Tingler Tab

   
SPINE-TINGLER

"Spine Tingler"


Slide Guitar Solo After the Violin Solo

        Em          Am                  G              Bm
e-|13/15--15--15-15/17--17-17/19--19--|1917/19-19~-12-12-12--14-15-15/17~|
B-|-----------------------------------|-----------------------------------|
G-|-----------------------------------|-----------------------------------|
D-|-----------------------------------|-----------------------------------|
A-|-----------------------------------|-----------------------------------|
E-|-----------------------------------|-----------------------------------|
            G                Bm                 G#m           Bb
e-|1715~~15-15----15-15/19-19~~1917/|19-19~1916------------------------|
B-|-------------15--------------------|-------------16----1615-15-15-15x-|
G-|-----------------------------------|----------------16----------15-15x-|
D-|-----------------------------------|-----------------------------------|
A-|-----------------------------------|-----------------------------------|
E-|-----------------------------------|-----------------------------------|
        Eb             Am          B     Em......
e-|-----------------------------------|-----------------------------------|
B-|----16-16/20-20-20/22-22-22/24-24-|-17~~~~~~--fade-in-----------------|
G-|/15--------------------------------|-----------------------------------|
D-|-----------------------------------|-----------------------------------|
A-|-----------------------------------|-----------------------------------|
E-|-----------------------------------|-----------------------------------|

10:48 
e|-13^(15)~---13^(15)^13------------------------------------------------ 
B|-------------------------------------------14^(15)^14^(15)^14^(15)~~~- 
G|-----------------------15~--17-15-13-15-17---------------------------- 
D|---------------------------------------------------------------------- 
A|---------------------------------------------------------------------- 
E|---------------------------------------------------------------------- 

11:02 
e|-------------------------------------- 
B|-14^(15)^14-13------------------------ 
G|---------------15-12-10h12-^(15)-^12-- 
D|-------------------------------------- 
A|-------------------------------------- 
E|-------------------------------------- 

11:06 
e|---------------------13------13-----13----------------------- 
B|-14^(15)-13----13--------15-----15------14^(15)^14^(15)~~---- 
G|------------15----------------------------------------------- 
D|------------------------------------------------------------- 
A|------------------------------------------------------------- 
E|------------------------------------------------------------- 

11:15 
e|-------15-13------------------------------ 
B|-13-15-------15---13/15--13^(15)-13^(15)-- 
G|------------------------------------------ 
D|------------------------------------------ 
A|------------------------------------------ 
E|------------------------------------------ 

11:20 
e|------------------------------------ 
B|------------1513--13/15--13-^(15)-- 
G|-12/15-17--------------------------- 
D|------------------------------------ 
A|------------------------------------ 
E|------------------------------------ 

11:29 
e|-13^-15-13^(15)~~~^13- 
B|---------------------- 
G|---------------------- 
D|---------------------- 
A|---------------------- 
E|---------------------- 

11:33 
e|--15-15--13-15-13-15-13--------------------------------- 
B|------------------------15-13-15-13--------------------- 
G|------------------------------------15-17-15-^(17)-12~~~ 
D|-------------------------------------------------------- 
A|-------------------------------------------------------- 
E|-------------------------------------------------------- 
[ Tab from: http://www.guitartabs.cc/tabs/b/blizzard/spine_tingler_tab.html ]
11:43 
e|- 20^(22)(22)(22)(22)(22)(22)(22)(22)(22)(22)(22)(22
)(22)(22)(22)^20--18-15-18-15~~- 
B|----------------------------------------------------------------------------------- 
G|----------------------------------------------------------------------------------- 
D|----------------------------------------------------------------------------------- 
A|----------------------------------------------------------------------------------- 
E|----------------------------------------------------------------------------------- 

11:51 
e|----------------------------------------------------------------- 
B|----------------------------------------------------------------- 
G|-17^(19)-17-15-17-17^(19)-------15-17-17^(19)-15-15-17-15~~------ 
D|--------------------------15-17---------------------------------- 
A|----------------------------------------------------------------- 
E|----------------------------------------------------------------- 

11:57 
e|----------------------------------------------------------------- 
B|--18------------------------------------------------------------- 
G|--17^(19)-17-15---------15--------------------------------------- 
D|----------------17-15-17--17~------------------------------------ 
A|----------------------------------------------------------------- 
E|----------------------------------------------------------------- 

12:01 
e|------------------------------------------- 
B|------------------------------------------- 
G|-5h3---5-5-5-5-5-5-5-5-5-5-3---3----------- 
D|----h5-----------------------5---5~~~----- 
A|------------------------------------------- 
E|------------------------------------------- 

12:08 
e|---------------------------15----------------------------------- 
B|------------------------18----18-------------------------------- 
G|-17^(19)-17-15---17^(19)---------15-17^(19)------15------------- 
D|--------------17----------------------------15-17---17---------- 
A|---------------------------------------------------------------- 
E|---------------------------------------------------------------- 

12:15 
e|--------------------------------------------------------- 
B|--------------------------18----------------------------- 
G|-17^(19)^17-15-15-17^(19)----17^(19)-15-------15--------- 
D|---------------------------------------15-17----17------- 
A|--------------------------------------------------------- 
E|--------------------------------------------------------- 

12:22 
e|----------------------------13------------------------ 
B|----------------------13-13-13^(15)-------11---------- 
G|----------------10-12-12-12---------10-12---12-------- 
D|-12-10-10-12----------------------------------------- 
A|------------------------------------------------------ 
E|------------------------------------------------------ 

12:29 
e|--------------------------- 
B|--/8---8---8---8---8-8-3-- 
G|-----0---0---0---0--------- 
D|--------------------------- 
A|--------------------------- 
E|--------------------------- 

12:36 
e|---------------------------------------------- 
B|-18----------18---18-------------------------- 
G|-17^(19)-(19)--(19)--^17-15------15----------- 
D|----------------------------15-17----17------- 
A|---------------------------------------------- 
E|---------------------------------------------- 

12:43 
e|------------------------------'''''| 
B|-18--------------------------- | 
G|-17^(19)(VIBRATO WITH BAR)---- | 
D|------------------------------ | 
A|------------------------------ | 
E|------------------------------  
> Repeat x2 
12:49 / 
e|---------------------- | 
B|---------------------- | 
G|-5^(7)(7)(7)-5-3------ | 
D|------------------5--- | 
A|---------------------- | 
E|----------------------'''''''''''''' 

BASS 
G|----------------------- 
D|-----5---5-5-5-5-3----- 
A|-------------------5--- 
E|-3-3------------------- 

G|------------------------ 
D|-----5----3----5-------- 
A|-------/5---/5---5------ 
E|-3-3-------------------- 

G|---------------------- and some other 
D|-----5---/5-/5-------- variations 
A|---------------/5-/5-- 
E|-3-3------------------ 
Comments