Blizzard - Somewhere In Time Chords & Tabs

 

Somewhere In Time Chords & Tabs

Blizzard Chords & Tabs

Version: 1 Type: Tab 0 ratings
1 star 2 stars 3 stars 4 stars 5 stars
comments

Somewhere In Time Tab

Tabulature for "Somewhere in Time"
Off the album "Captured"
Written by Blizzard

--------------------------------------------------------------------------------
      
     So what can I tell you                                  Lifes  three times
E-]----------------------------------------------------------------------------|
B-]---------------------------------------------------3---------3--------------|
G-]o------------------------2--------2----------------3---------3-------------o|
D-]o------------------------3--------3----------------3---------3-------------o|
A-]-------------------------3--------3----------------1---------1--------------|
E-]-------------------------1--------1-------1---------------------------------|
                                 The length of this play
                                 Perhaps God gave the answer
                                 To those with nothing to

        Say                                                The years are
E-]----------------------------------------------------------------------------|
B-]------------5-----------5-------------------3------------3------------------|
G-]------------3-----------3-------------------3------------3------------------|
D-]------------5-----------5-------------------3------------3------------------|
A-]------------3-----------3--------3----------1------------1--------1---------|
E-]----------------------------------------------------------------------------|

                         Forgiven                    God's forgiven three times
E-]----------------------------------------------------------------------------|
B-]---------------------------------------------------3---------3--------------|
G-]o------------------------2--------2----------------3---------3-------------o|
D-]o------------------------3--------3----------------3---------3-------------o|
A-]-------------------------3--------3----------------1---------1--------------|
E-]-------------------------1--------1-------1---------------------------------|
                                   In kind
                                   Perhaps well all find the answers
                                   Somewhere in

           Time                                       Somewhere in
E-]----------------------------------------------------------------------------|
B-]------------5-----------5-------------------3------------3------------------|
G-]------------3-----------3-------------------3------------3------------------|
D-]------------5-----------5-------------------3------------3------------------|
A-]------------3-----------3-------------------1------------1------------------|
E-]----------------------------------------------------------------------------|

          Time
E-]----------------------------------------------------------------------------|
B-]----------------------------------------------------------------------------|
G-]----------------------------------------------------------------------------|
D-]---------3----3----3----3-----3----3----3---3-------------------------------|
A-]---------3----3----3----3-----3----3----3---3-------------------------------|
E-]---------1----1----1----1-----1----1----1---1-------------------------------|

     I've been changing  Redefigning  All the things  I thought I knew     so
E-]----------------------------------------------------------------------------|
B-]--5-------------5-5---------------------------------------------------------|
G-]o-3-------------3-3--5------5-5--2---------2-2--3-------------3-3------o|
D-]o-5-------------5-5--7------7-7--3---------3-3--5-------------5-5------o|
A-]--3-------------3-3--7------7-7--3---------3-3--5-------------5-5-------|
E-]----------------------5------5-5--1---------1-1--3-------------3-3-------|
     Long ago            I was flying Through..years  that seem so        far

       Away                                                    In the back of a
E-]----------------------------------------------------------------------------|
B-]----5------6----------10--------------10------------5----6------------------|
G-]----3------7--------------10------10------10--------3----7------------------|
D-]----5------7------------------10--------------10----5----7------------------|
A-]----3------5----------------------------------------3----5-----------X-----|
E-]---------------------------------------------------------------------X-----|

                        Reason                          in the back three times
E-]---------------------------------(5)----------------------------------------|
B-]------------------------------------(6)------------3---------3--------------|
G-]o------------------------2--------2-----(5)-(3~ )--3---------3-------------o|
D-]o------------------------3--------3----------------3---------3-------------o|
A-]-------------------------3--------3----------------1---------1--------------|
E-]-------------------------1--------1-------1---------------------------------|
                            Of my mind
                            Where I've piled up the seasons
                            That I've traded for
[ Tab from: http://www.guitartabs.cc/tabs/b/blizzard/somewhere_in_time_tab.html ]
        Time                                         I've been grasping at 
E-]----------------------------------------------------------------------------|
B-]------------5-----------5-------------------3------------3------------------|
G-]------------3-----------3-------------------3------------3------------------|
D-]------------5-----------5-------------------3------------3------------------|
A-]------------3-----------3--------3----------1------------1--------1---------|
E-]----------------------------------------------------------------------------|

                         Rainbows                     Hanging...end three times
E-]---------------------------------(5)----------------------------------------|
B-]-------------------------------------(6)-----------3---------3--------------|
G-]o------------------------2--------2------(5)-(3~ )-3---------3-------------o|
D-]o------------------------3--------3----------------3---------3-------------o|
A-]-------------------------3--------3----------------1---------1--------------|
E-]-------------------------1--------1-------1---------------------------------|
                             But the rain is so real lord
                             The rainbows
                                  
           Pretend                                    The rainbows 
E-]----------------------------------------------------------------------------|
B-]------------5-----------5-------------------3------------3------------------|
G-]------------3-----------3-------------------3------------3------------------|
D-]------------5-----------5-------------------3------------3------------------|
A-]------------3-----------3-------------------1------------1------------------|
E-]----------------------------------------------------------------------------|

          Pretend
E-]----------------------------------------------------------------------------|
B-]----------------------------------------------------------------------------|
G-]----------------------------------------------------------------------------|
D-]---------3----3----3----3-----3--3--3----3---3------------------------------|
A-]---------3----3----3----3-----3--3--3----3---3------------------------------|
E-]---------1----1----1----1-----1--1--1----1---1------------------------------|

     I've been changing  Redefigning  All the things  I thought I knew     so
E-]----------------------------------------------------------------------------|
B-]--5-------------5-5---------------------------------------------------------|
G-]o-3-------------3-3--5------5-5--2---------2-2--3-------------3-3------o|
D-]o-5-------------5-5--7------7-7--3---------3-3--5-------------5-5------o|
A-]--3-------------3-3--7------7-7--3---------3-3--5-------------5-5-------|
E-]----------------------5------5-5--1---------1-1--3-------------3-3-------|
     Long ago            I was flying Through..years  that seem so        far

       Away
E-]----------------------------------------------------------------------------|
B-]----------------------------------------------------------------------------|
G-]o-------------------7------/-12-------------10------------------(fill)-----o|
D-]o-----5---X--X--X---7------/-12---X--X--X---10--X--X--X---5----------------o|
A-]------3---0--0--0---5------/-10---0--0--0---8---0--0--0---3-----------------|
E-]----------------------------------------------------------------------------|

                                                                     four times
E-]----------------------------------------------------------------------------|
B-]----10----------------12-----------10-----------10----------12---12---------|
G-]o-------10-------10-------12-----------------------------------------------o|
D-]o-----------10----------------12-------10--10---------10-------------------o|
A-]----------------------------------------------------------------------------|
E-]----------------------------------------------------------------------------|


E-]----------------------------------------------------------------------------|
B-]----------------------------------------------------------------------------|
G-]o-------------------7------/-12-------------10------------------(fill)-----o|
D-]o-----5---X--X--X---7------/-12---X--X--X---10--X--X--X---5----------------o|
A-]------3---0--0--0---5------/-10---0--0--0---8---0--0--0---3-----------------|
E-]----------------------------------------------------------------------------|

                                                                     four times
E-]----------------------------------------------------------------------------|
B-]----10----------------12-----------10-----------10----------12---12---------|
G-]o-------10-------10-------12-----------------------------------------------o|
D-]o-----------10----------------12-------10--10---------10-------------------o|
A-]----------------------------------------------------------------------------|
E-]----------------------------------------------------------------------------|


E-]----------|-------------------3--------------|------------------------------|
B-]----5-----|--------3--5----------6--5--------|------5-----------------------|
G-]----3-----|o----5--------5--------------5---o|------------------------------|
D-]----5-----|o--------------------------------o|-----------------5------------|
A-]----3-----|----------------------------------|-----------------3------------|
E-]----------|----------------------------------|------------------------------|
Comments