Blizzard - Sirens Chords & Tabs

 

Sirens Chords & Tabs

Blizzard Chords & Tabs

Version: 1 Type: Tab 0 ratings
1 star 2 stars 3 stars 4 stars 5 stars
comments

Sirens Tab

   
#----------------------------------PLEASE NOTE--------------------------------#
#This file is the author's own work and represents their interpretation of the#
#song. You may only use this file for private study, scholarship, or research.#
#-----------------------------------------------------------------------------#


Author/Artist: Blizzard
Title: Sirens
Album: Captured(Disc2)
Email: Mystic_Illusions78@yahoo.com

s - slide
b - half bend from this position
m - mute
h - hammer
p - pull
~ - vibrato

tuning: drop D

Intro: 3/4

e-]-------------|-------3-----|-------------|-------------|
B-]-------------|---------3---|-------------|-------------|
G-]-------8-----|-----5-----5-|-------8-----|-------7-----|
D-]-----6---8---|---5---------|-----6-------|---7-----7---|
A-]---6-------6-s-3-----------|---6-----6---s-5---5-----5-|
D-]-6-----------|-------------|-6-------hold|-------------|
    |_| |_| |_|   |_| |_| |_|   |_| |_| |_|   |_| |_| |_|

e-]-------------|-------3-----|-------------|--------------------|
B-]-------------|---------3---|-------------|-------8-let ring---|
G-]-------8-----|-----5-----5-|-----8---8---|-7-------7-let ring-|
D-]-----6---8---|---5---------|-----8-- hold|-hold---------------|
A-]---6-------6-s-3-----------|---6-6-------|--------------------|
D-]-6-----------|-------------|-6-----------|--------------------|
    |_| |_| |_|   |_| |_| |_|   |_| |_| |_|   |_| |_| |_|

e-]-------------|-------3-----|-------------|-------------|
B-]-------------|---------3---|-------------|-------------|
G-]-------8-----|-----5-----5-|-------8-----|-------7-----|
D-]-----6---6---|---5---------|-----6-------|---7-----7---|
A-]---6-------6-s-3-----------|---6-----6---s-5---5-----5-|
D-]-6-----------|-------------|-6-------hold|-------------|
    |_| |_| |_|   |_| |_| |_|   |_| |_| |_|   |_| |_| |_|

e-]-------------|-------3-----|-------------|
B-]-------------|---------3---|-------------|
G-]-------8-----|-----5-----5-|---------8---|
D-]-----6---6---|---5---------|-----6---8---|
A-]---6-------6-s-3-----------|---6-----6---|
D-]-6-----------|-------------|-6-----------|
    |_| |_| |_|   |_| |_| |_|   |_| |_| |_|

Riff A:
   ------play 3x--------
e-]---------------------|-----------------|
B-]---------------------|-----------------|
G-]-7-------8s7---------|-8---7---5---3---|
D-]-7-------------------|-8---7---5---3---|
A-]-5---5---6s5---5-5-5-|-6---5---3---1---|
D-]-0---0---------0-0-0-|-----------------|
    |_| |_|_|_| |_| |_|   |_| |_| |_| |_|


Riff B:
e-]---------------------|
B-]---------------------|
G-]-7-------8s7---------|
D-]-7-------------------|
A-]-5---5---6s5---5-5-5-|
D-]-0---0---------0-0-0-|
    |_| |_|_|_| |_| |_|
[ Tab from: http://www.guitartabs.cc/tabs/b/blizzard/sirens_tab.html ]
Riff C:
e-]-----------------------|
B-]-----------------------|
G-]-8s7-------------------|
D-]-8s7-------------------|
A-]-6s5---5-5-5-5-5-5-4-5-|
D-]-------0-0-0-0-0-0-0-0-|
    |_| |_| |_|_| |_|_|_|
              3
          m m m m m m m m

Solo1)
                                                       (full)B
e-]---------------------------------|------------------------13-13-|
B-]-b--b--b----h--p--h--p--h--p-----|------------------------------|
G-]-12-12-12-10-12-10-12-10-12-10---|------------------10-12-------|
D-]---------------------------------|-12---------10-12-------------|
A-]---------------------------------|------10-12-------------------|
D-]---------------------------------|------------------------------|
    |  |__|  |__|__|__|  |__|__|__|   |__|__|__|  |__|__|__|  |  |

Solo2)
e-]-------------------------|---------------------------------------|
B-]-------------------------|---------------------------------------|
G-]----------b--------------|------------------------------------~~~|
D-]-12----10-12-12-10-------|-------------------------12-12-12-12---|
A-]-------------------------|-------------12-12-12-12---------------|
D-]-------------------10-10-|-12-12-12-12---------------------------|
    |__|  |__|  |__|  |__|    |__|__|__|  |__|__|__|  |__|__|__|  |

Solo3)
e-]-10-12-13-12-10-12-13-12-10-12-10-10-12-13-12-10-|
B-]-------------------------------------------------|
G-]-------------------------------------------------|
D-]-------------------------------------------------|
A-]-------------------------------------------------|
D-]-------------------------------------------------|
    |__|__|__|  |__|__|__|  |__|__|__|  |__|__|__|

e-]-13-10----------------------b----~~~|
B-]-------13-10-11-10-------13-13-13---|
G-]-------------------12-10------------|
D-]------------------------------------|
A-]------------------------------------|
D-]------------------------------------|
    |__|__|__|  |__|__|__|  |__|  |__|

Interlude: 3/4
                 -----------------------play 6 x------------------------
e-]-------------|-------------|-------------|-------------|-------------|
B-]-------------|-6----~~~----|-------------|-----8-------|---let ring--|
G-]-------------|-----7---5---|--~~~--------|-----8-------|-7-----------|
D-]-------------|-------------|-7---5-7-5---|-----5-------|-7-----------|
A-]-----let ring|-------------|-----------8-|-5-----------|-5-----------|
D-]-3-2-0-------|-------------|-------------|-------------|-0-----------|
    |_| |_| |_|   |_| |_| |_|   |_| |_| |_|   |_| |_| |_|   |_| |_| |_|
    m m

End:
e-]-----------------|-----------------|
B-]-----------------|-----------------|
G-]-7-7-7-7-hold and fade out---------|
D-]-7-7-7-7---------|-----------------|
A-]-5-5-5-5---------|-----------------|
D-]-0-0-0-0---------|-----------------|
    |_| |_| |_| |_|   |_| |_| |_| |_|

The chords 'C 2)' and 'D 2)' have to be played like this:

    C 2)  D 2)
e-]-----------| I don't know the real name
B-]-----------| of this chords :-(
G-]-------2---|
D-]-2-----0---| perhaps somebody can help?
A-]-3-----1---|
D-]-5-----0---|
Comments