Blizzard - Sexectra Chords & Tabs

 

Sexectra Chords & Tabs

Blizzard Chords & Tabs

Version: 2 Type: Tab 0 ratings
1 star 2 stars 3 stars 4 stars 5 stars
comments

Sexectra Tab

   
Artist: Blizzard
Song: Sexectra  (Agusto)
Tabbed by: John Leadman

INTRO:
Vamp till drums
     E                E           E Eb/E  Eb/E
E-|-----------------||--7-----------7-6-|-6---------------------------||
B-|-----------------||--9-----------9-8-|-8---------------------------||
G-|-----------------||:-9-----------9-8-|-8--------------------------:||
D-|-----------------||--9-----------9-8-|-8---------------------------||
A-|-----------------||--7-----------7-6-|-6---------------------------||
E-|-0-0-0-0-0-0-0-0-||--0-----5b7r0-0-0-|-0---------------------------||

|-12-12-12-11-11-11-10-10-10-9-9-9-8-8-8-7-7-7-6-6-6-5-5-5-----------------|
|-10-10-10--9--9--9--8--8--8-7-7-7-6-6-6-5-5-5-4-4-4-3-3-3-----------------|
|--------------------------------------------------------------------------|
|--------------------------------------------------------------------------|
|--------------------------------------------------------------------------|
|--------------------------------------------------------------------------|

|-10-10-----9-9---8-8---7-7---6-6---5-5---4-4---3-3------------------------|
|-10----10--9---9-8---8-7---7-6---6-5---5-4---4-3---3----------------------|
|-11-------10-----9-----8-----7-----6-----5-----4--------------------------|
|--------------------------------------------------------------------------|
|--------------------------------------------------------------------------|
|--------------------------------------------------------------------------|

|-2--------2--------3--------3------3-\----0-------------------------------|
|-3--3---3---3---3--4--4---4---4----4-\----0-------------------------------|
|-2----2-------2----3----3-------3--3-\----1-------------------------------|
|-0-----------------1---------------1-\----2-------------------------------|
|------------------------------------------2-------------------------------|
|------------------------------------------0-------------------------------|

(With slight distortion, heavy delay)

E-|-12-12-12-12-12-12-12-12-12-12-12-12-12-12-12-12-|
B-|-------------------------------------------------|
G-|-------------------------------------------------|
D-|-------------------------------------------------|
A-|-------------------------------------------------|
E-|-------------------------------------------------|

E-|-11-11-11-11-11-11-11-11-11-11-11-11-11-11-11-11-|
B-|-------------------------------------------------|
G-|-------------------------------------------------|
D-|-------------------------------------------------|
A-|-------------------------------------------------|
E-|-------------------------------------------------|

E-|-3-3sl10-10-10sl3-3-3sl10-10-10sl5-|-5-----------------|
B-|-----------------------------------|---5---------------|
G-|-----------------------------------|-----7b8-----------|
D-|-----------------------------------|---------7~~~~~----|
A-|-----------------------------------|-------------------|
E-|-----------------------------------|-------------------|

(Soft hum of Keyboards)
(Drums kick in)
(Increase volume first time and let last note ring out)
|-----------------------|------------------------|
|-PH--------------------|-PH---------------------|
|--5^-^(5)p3----3--3----|--5^-^(5)p3---3--3-5----|
|------------5--3----5--|------------5-3--3-5----|
|------------5----------|-------------------3----|
|-----------------------|------------------------|

CHORDS GO WITH LYRICS:

"..sometimes it feels so tough, but I still ain't had enough.
                                                      C5

"I keep saying that its getting too much...but I know i'm a liar..."
 G5         C5          G5               C5    G5     C5    G5
[ Tab from: http://www.guitartabs.cc/tabs/b/blizzard/sexectra_tab_ver_2.html ]
"Feeling alright..."                  "But thats what lights my fire..."
|-----------------------------------------|------------------------6^-|
|-----------------------------------------|---------------------------|
|--------5----------------------3~~---5~~-|-------5-------------------|
|-3---x--5----------------------3-----5---|-3---x-5--------5-5-5------|
|-3---x--3--PM.................-----5-----|-3---x-3--3-3-3-3-3-3------|
|-1---x-------1-1-2-2-3-3-1-2-3-----------|-1---x----------------3----|

"Sexectra.......in the thunder and heat..."
|------------------------------------------------------------|
|--------------x-6-------------------------------------------|
|---------3----x-5-----5---5^-^(5)p3---3^-3------------------|
|-----5---3----x-3-----2-------------5------5----------------|
|-----5---1--------------------------------------------------|
|-----3------------------------------------------------------|and so on....

INTERLUDE: all palm mutes:
|---------------------------------|---------------------------------|
|---------------------------------|---------------------------------|
|---------------------------------|---------------------------------|
|---------------------------------|---------------------------------|
|-------------------5-5-5-3-4-----|-------------------3-3-3-1-2-----|
|-3-3-4-4-5-5-3-4-5-----------5-3-|-1-1-2-2-3-3-1-2-1-----------3-5-|

|---------------------------------|------------------------------|
|---------------------------------|------------------------------|
|---------------------------------|---3---------3---------3------|
|---------------------------------|---3----3----3----3----3----3-|
|-------------------5-5-5-3-4-----|-1-1----3--1-1----3--1-1----3-|
|-3-3-4-4-5-5-3-4-5-----------5-3-|------1-1-------1-1-------1-1-|

SOLO:
|-----------------------------------------------------------|
|-5^-----T------------T-------------------------------------|
|-5^--p3-21^--^-^-p5-21--5^--p3-5~~~~~----------------------|
|-----------------------------------------------------------|
|-----------------------------------------------------------|
|-----------------------------------------------------------|

|----------------------------------------------15-18-18-15--|
|----------------------------15-18----------18--------------|
|----------15-17-------------------15-17-15-----------------|
|----------------15-17-15-17--------------------------------|
|-17-15-17--------------------------------------------------|
|-----------------------------------------------------------|

-------------------------------|----------------------------|
-18-15-------18-15-------------|-18^--^(18)p15-18^~~~~~-----|
-------17-15-------15-14-------|----------------------------|
-------------------------17-15-|----------------------------|
-------------------------------|----------------------------|
-------------------------------|----------------------------|

|---------------------------------------------------|
|-17^-^17----------17^-^17-----------17^-^17--------|
|-17^-^17p15-------17^-^17p15--------17^-^17p15-----|
|------------17-15-------------17-15------------17--|
|---------------------------------------------------|
|---------------------------------------------------|

|---------------------------------------------|-------------|
|-------15-----------------------------18-----|-------------|
|-18----------18----17----17^-^(17)p15----17^-|-------------|
|----17----17----17----17---------------------|-------------|
|---------------------------------------------|-------------|
|---------------------------------------------|-------------|

      decrease magnitude of bend.
|-20^-20^20^20^20^20^20^20^20^-20^^^(20)-18-----|-----------|
|-------------------------------------------20--|-----------|
|-----------------------------------------------|-----------|
|-----------------------------------------------|-----------|
|-----------------------------------------------|-----------|
|-----------------------------------------------|-----------|

|-18-15-------------------------------------------18^~~~~---|
|-------18-15-------18-15-----------------------------------|
|-------------17-15-------17-15-------17-15-----------------|
|-------------------------------17-15-------17-15-----------|
|-----------------------------------------------------------|
|-----------------------------------------------------------|

ENDING:
|----------------play 3 times|------------------------|
|----------------------------|------------------------|
|-------5-----------3--x-2---|-------5----------3--2--|
|-------5-----------3--x-3---|-------5----------3--3--|
|----------------------------|------------------------|
|-3-3-3-----3-3-3-3----------|-3-3-3-----3-3-3--------|
Comments