Blizzard - Riffs Of Illusion 6 To Chords & Tabs

 

Riffs Of Illusion 6 To Chords & Tabs

Blizzard Chords & Tabs

Version: 1 Type: Tab 0 ratings
1 star 2 stars 3 stars 4 stars 5 stars
comments

Riffs Of Illusion 6 To Tab

Riffs of Illusion  6 - 9

Part 6
Billy
|------------2------------------2-------|----------2-----------------2-------|
|--------3------3------------3-----3----|-------0-----0-----------0-----0----|
|----2--------------2-----2-----------2-|----0-----------0-----0-----------0-|
|-0--------------------0----------------|-0-----------------0----------------|
|---------------------------------------|------------------------------------|
|---------------------------------------|------------------------------------|
Tiffany
|---------------------------------------|------------------------------------|
|---------------------------------------|------------------------------------|
|---------------------------------------|------------------------------------|
|-4-5-7------------(7)-------------7/9--|------------------------------------|
|---------------------------------------|-7--------------(7)-----------------|
|---------------------------------------|------------------------------------|
Billy
|----------2-----------------2--------|----------2-----------------2-----3--|
|-------3-----3-----------3-----3-----|-------0-----0-----------0-----0-----|
|----2-----------2-----2-----------2--|----0-----------0-----0--------------|
|-0-----------------0-----------------|-0-----------------0-----------------|
|-------------------------------------|-------------------------------------|
|-------------------------------------|-------------------------------------|
Tiffany
|-------------------------------------|-------------------------------------|
|-------------------------------------|-------------------------------------|
|-------------------------------------|-------------------------------------|
|-4-5-7------------(7)-----------7/9--|---------------------------------7-6-|
|-------------------------------------|-7----------------(7)----------------|
|-------------------------------------|-------------------------------------|
Billy
|------------3------------------3-------|----------3-----------------3-------|
|--------0------0------------0-----0----|-------2-----2-----------2-----2----|
|----0--------------0-----0-----------0-|----2-----------2-----2-----------2-|
|-2--------------------2----------------|-2-----------------2----------------|
|---------------------------------------|------------------------------------|
|---------------------------------------|------------------------------------|
Tiffany
|---------------------------------------|------------------------------------|
|---------------------------------------|------------------------------------|
|---------------------------------------|------------------------------------|
|-5---------(5)--------7--------7/9-----|-7----------------(7)-----------7-6-|
|---------------------------------------|------------------------------------|
|---------------------------------------|------------------------------------|
Billy and Tiffany both together
|------0--------0--------0--------0-----|-------0-------0-------0-------0----|
|----0---0----0---0----0---0----0---0---|-----0---0---0---0---0---0---0---0--|
|---7-----7--7-----7--7-----7--7-----7--|----9-------9-------9-------9-------|
|--5--------5--------5--------5---------|---7-------7-------7-------7--------|
|---------------------------------------|--0-------0-------0-------0---------|
|---------------------------------------|------------------------------------|

Part 7
|-------0-----------0-----------0-----------0-----
|-----6---6-------6---6-------6---6-------6---6---
|---7-------7---7-------7---7-------7---7-------7-
|-0-----------0-----------0-----------0-----------
|-------------------------------------------------
|-------------------------------------------------

|-------0-----------0-----------0-----------0-----
|-----8---8-------8---8-------8---8-------8---8---
|---7-------7---7-------7---7-------7---7-------7-
|-0-----------0-----------0-----------0-----------
|-------------------------------------------------
|-------------------------------------------------

|-------8-----------8-----------8-----------8-----
|-----6---6-------6---6-------6---6-------6---6---
|---7-------7---7-------7---7-------7---7-------7-
|-0-----------0-----------0-----------0-----------
|-------------------------------------------------
|-------------------------------------------------

|--------------------------------------------------
|-------0-----------0-----------0-----------0------
|-----6---6-------4---4-------6---6-------4---4----
|---7-------7---5-------5---7-------7---5-------5--
|-0-----------0-----------0-----------0------------
|--------------------------------------------------

|------------------------------------------------------
|----3--3-3-3-3--3-3--3-3-----3--3-3-3-3--3-3--3-3-----
|----2--2-2-2-2--2-2--2-2-----2--2-2-2-2--2-2--2-2-----
|----0--0-0-0-0--0-0--0-0-----0--0-0-0-0--0-0--0-0-----
|-0------------------------0---------------------------
|------------------------------------------------------

|----------------------------------------------------------------------------
|------------------------------------3------------------------------------3--
|-2-2--5^5-2-5\2---------------------2------5^5-2-5\2---------------------2--
|----------------7\5-5\3-2h3p0-2h3p0-0----------------7\5-5\3-2h3p0-2h3p0-0--
|----------------------------------------------------------------------------
|----------------------------------------------------------------------------

|-----------------------------------------------------------
|-3--3--3------------------3--3-3-3-------------------------
|-2--2--2--2-2-2--2--5--4--2--2-2-2-------------------------
|-0--0--0--2-2-2--2--5--4--0--0-0-0-------------------------
|----------0-0-0--0--3--2-----------------------------------
|-----------------------------------------------------------

of all the things i value most...
|--------2--------------5-----------4-----------3-----------------
|------3---3----------6---6-------5---5-------4---4---------------
|----2-------2------5-------5---4-------4---3-------3-------------
|-0---------------0-----------0-----------0-----------------------
|-----------------------------------------------------------------
|-----------------------------------------------------------------
[ Tab from: http://www.guitartabs.cc/tabs/b/blizzard/riffs_of_illusion_6_to_tab.html ]
|--------2--------------5-----------4-----------3-----------------
|------3---3----------6---6-------5---5-------4---4---------------
|----2-------2------5-------5---4-------4---3-------3-------------
|-0---------------0-----------0-----------0-----------------------
|-----------------------------------------------------------------
|-----------------------------------------------------------------

Part 8 is a excellent drum solo, The Guitar part is as such:
|--(increase volume)---------------------------------------
|----------------------------------------------------------
|--3~~~~----------------3~~~~------------------------------
|---------3h5-3----------------3h5-3-----------------------
|---------------3/5------------------3/5-------------------
|-------------------3--------------------3/-\--------------

|----------------------------------------------------------
|----------------------------------------------------------
|----------------------------------------------------------
|----------------------------------------------------------
|-----3-3h4p3-3h4p3-3h4p3---------3-3h4p3-3h4p3-3h4p3------
|-3-6---------------------6-3-3-6---------------------6-3--

|----------------------------------------------------------
|----------------------------------------------------------
|----------------------------------------------------------
|----------------------------------------------------------
|-----3-4-3h4p3---------------3-4-3h4p3--------------------
|-3-6-----------6-3-------3-6-----------6-3----------------

|---------------------------------------------------15-15--15--15--
|------------------------------------------------------18^-18^-18^-
|------------------------------------------------17^---------------
|----------------8-10-12---------15-17^-17---17--------------------
|-----3-4-5-8-10-----------15/17-----------------------------------
|-3-6--------------------------------------------------------------

Solo:
|----------------------------------------------------------
|----------------------------------------------------------
|----------------------------------------------------------
|-7h8-7~~--7h8-10-7h8p7-7------------7h8-10-7--7-----------
|-------------------------8p7-7h8-10-------------8p7-------
|----------------------------------------------------------

|-------------------------------------------------------------
|-------------------------------------------------------------
|-------------------------------------------------------------
|------------------------------7--8-10-7h8p7-7----------------
|-7-8-7h8p7-7h8p7-7h8p7-7h8h10-----------------8p7-7h8p7----7-
|--------------------------------------------------------10---

|----------------------------------------------------------
|----------------------------------------------------------
|----------------------------------------------------------
|------7-10-7-7h8p7-7---------------7-8-10/12-10-8-8p7-----
|-8-10----------------8p7----7-8-10------------------------
|-------------------------10-------------------------------

|----------------------------------------------------------
|----------------------------------------------------------
|----------------------------------------------------------
|-7h8p7-7------------7-------------------------------------
|---------8p7-7-8-10---8-8/10-10-10------------------------
|----------------------------------------------------------

Part 9
|--------3---------------3--------------3----------------3----------|
|----3h5---5-5-5-----3h5---5-5-5----3h5--------------3h5------------|
|--4---------------4--------------4-------432------4-------432------|
|---------------------------------------------2-2---------------2-2-|
|-------------------------------------------------------------------|
|-------------------------------------------------------------------|

Solo:
|----------------------------------------------------------|
|------------------------------------------8~--------------|
|------------------------------9-9---9-7-9----9-7----------|
|-7^~~~~---9\7--5-7-5-7-5--7/9-----------------------------|
|----------------------------------------------------------|
|----------------------------------------------------------|
|                                                          |
|----------------------------------------------------------|
|--------------------------------------8^------------------|
|------------------------------9-9-9-9-------9-7-----------|
|-7^~~~~---9\7--5-7-5-7-5--7/9-----------------------------|
|----------------------------------------------------------|
|----------------------------------------------------------|

|----------------------------------------------------------
|---------------------------------------------8------------
|-----7-------------------------------9-9-------9----------
|-7/9---9\7--7-5-7^~~~~--7-5-7-5--7h9-----7h9--------------
|----------------------------------------------------------
|----------------------------------------------------------

|----------------------
|----------------------
|----------------------
|-9\7-5-7-5-7~~-5------
|----------------------
|----------------------

|----------------------------------------|
|----------------------------------------|
|--7--9--9--7--9--9---7-6-7-6-7-6--7-9-9-|
|--7--9--9--7--9--9---7-6-7-6-7-6--7-9-9-|
|--5--7--7--5--7--7---5-4-5-4-5-4--5-7-7-|
|----------------------------------------|

    "feel so happy since I became his girl..."
|----------------------------------------|
|----------------------------------------|
|--7--9--9--7--9--9---7-7-7-7-7-7--7-9-9-|
|--7--9--9--7--9--9---7-7-7-7-7-7--7-9-9-|
|--5--7--7--5--7--7---5-5-5-5-5-5--5-7-7-|
|----------------------------------------|

"some1 to love me..."
|---------------|---------------|
|---------------|---------------|
|---------------|---------------|
|-7----------7--|-9-------------|
|-7----------7--|-9-------------|
|-5----------5--|-7-------------|

"Lovly Billy...Making love all night long"
|---0-----3-----0-----3-----------|
|-----0-----0-----0-----0---------|
|---------------------------------|
|-2-----2-----2-----2-----2-0-1-2-|
|---------------------------------|
|---------------------------------|

"I dont want to leave you..." Anymore...no more"
|------------|------------|--------------------------------|
|------------|------------|--------------------------------|
|-5----------|-4----------|--------------------------------|
|-5----------|-4----------|-2--2-2---x-x-x-7-7-7--7-7\-----|
|-3----------|-2----------|-2--2-2---x-x-x-7-7-7--7-7\-----|
|------------|------------|-0--0-0---x-x-x-5-5-5--5-5\-----|

|------------------------------------------------|
|------------------------------------------------|
|------------7p5---7--5-------454-0---0-4-5\4----|
|----7-7p5-7-7p5---7--5-------454-0-5-0-4-5\4----|
|----7-7p5-7-----7------7-----------5------------|
|--0----------------------0-------------------0--|
this is the little thing at the end
Comments