Blizzard - Morbid Nights Chords & Tabs

 

Morbid Nights Chords & Tabs

Blizzard Chords & Tabs

Version: 1 Type: Tab 0 ratings
1 star 2 stars 3 stars 4 stars 5 stars
comments

Morbid Nights Tab

   
Morbid Nights
Blizzard  -  Captured(Disc1)  (1991)

|-----------------------------------|
|-----------------------------------|
|-----9-----9---9-------------------|
|-----9-----9---9-------------------|
|-----7-----7---7----------------9--|
|-0-0-0-0-0-0-0-0-0-0-0-0-0-0-10----|

|----------------------------------------------------|
|----------------------------------------------------|
|-7-------------7------9-----9---9-------------------|
|-7--11--9--11--7------9-----9---9-------------------|
|-5--11--9--11--5------7-----7---7----------------9--|
|----9---7--9------0-0-0-0-0-0-0-0-0-0-0-0-0-0-10----|

circles and rings....
|---------------------------------------------|
|---------------------------------------------|
|-2--------5--------7-------------------------|
|-2--------5--------7-------------------------|
|-0--------3--------5--------3-2-0---3-2-0----|
|----------------------------------3-------3--|

|-------------------------------------|
|-------------------------------------|
|-2--------5--------7------------7-9--|
|-2--------5--------7--------5-5-7-9--|
|-0--------3--------5--------5-5-5-7--|
|----------------------------3-3------|

"Bloody Genitals..."
|-----------------------------------------------------|
|-----------------------------------------------------|
|-7--7-7--5-5-4----7--7-7--5-5-4-5--2--5p4-2-------2--|
|-7--7-7--5-5-4----7--7-7--5-5-4-5--2--5p4-2-------2--|
|-5--5-5--3-3-2----5--5-5--3-3-2-3--0--------0-3h4-0--|
|-----------------------------------------------------|

|---------------------------------------------------------|
|---------------------------------------------------------|
|-2----5p4--2----------2----5p4--2----------2-------------|
|-2----5p4--2----------2----5p4--2----------2-------------|
|-0------------0--3h4--0------------0--3h4--0-------------|
|---------------------------------------------------------|

Solo:
|---------------------------------------------------------|
|-15^------15-12----------12-------------12---------------|
|----------------14-14-------12-12----14----14~~-12-------|
|---------------------------------------------------14-14-|
|---------------------------------------------------------|
|---------------------------------------------------------|

|------------------------------------------------------|
|------------------------------------------------------|
|-12---------------------12---------12-----------------|
|----14-14~~--12--12---14--14~~-------14-12--14-12--12-|
|---------------14-------------------------14-----14---|
|------------------------------------------------------|

|------------------------|----------------------------------|
|------------------------|----------------------------------|
|------------------------|----------------------------------|
|-------------9----------|-------------9--------------------|
|-14p12-10-12---12-10-12-|-10-12-10-12---12-10--------------|
|------------------------|---------------------12~~~--------|

|---------|--------------------|---------------------|---------
|---------|--------------------|------------------10-|---------
|---------|--------------------|-9-12p11-9--11-12----|-12-11-9-
|---------|---------------9-12-|---------------------|---------
|-------9-|-10-12--10-12-------|---------------------|---------
|-10-12---|--------------------|---------------------|---------

	      b		       release
----------|-17^~~~~~~~~~~~-|-19^^^^^^^^17-|-19^17-19^17-19^17-|
----10-12-|----------------|--------------|-------------------|
-12-------|----------------|--------------|-------------------|
----------|----------------|--------------|-------------------|
----------|----------------|--------------|-------------------|
----------|----------------|--------------|-------------------|
[ Tab from: http://www.guitartabs.cc/tabs/b/blizzard/morbid_nights_tab.html ]
|-19^17-19^17--|-19^17-14-15------|---12-15-12~~--|
|--------------|------------17~~--|-15------------|
|--------------|------------------|---------------|
|--------------|------------------|---------------|
|--------------|------------------|---------------|
|--------------|------------------|---------------|

|-12----------------------|----------------------|----------
|---15-12---15-15p12---12-|----------------------|----------
|--------14^--------14----|-15-14-12----14-12----|----------
|-------------------------|----------14-------14-|----------
|-------------------------|----------------------|----------
|-------------------------|----------------------|----------

|-----------------------------|--------------------------|
|-----12-15----12-------------|--------------------------|
|-14^-------14----14-14p12----|-12-----------------------|
|--------------------------14-|----14-12----14-12----12--|
|-----------------------------|----------14-------14-----|
|-----------------------------|--------------------------|

|-----------------------|-----------------|--------------------------|
|-----------------------|-----------------|--------------------------|
|-----------------------|-----------------|--------------------------|
|-----------------------|-----------------|---------------7h9--------|
|-14-13-12-10---12-10-9-|-10-9------9-----|-7-9-10p9-7-10-----10p9-7-|
|-----------------------|------12-----10--|--------------------------|

|---------------------------------15p14-|-12------12-----------------------|
|------------------------------12-------|----12h15--15p12--121512-12-------|
|----------------------12h14p12---------|----------------14---------141214-|
|----------12h14p12--14-----------------|----------------------------------|
|-10h12/14------------------------------|----------------------------------|
|---------------------------------------|----------------------------------|

|----------------------------------------|---------------------------------|
|----------------------------------------|---------------------------------|
|-13h14p12--12---------------------------|---------------------------------|
|---------14--14p12--14p12---------------|---------------------------10h12-|
|------------------14-----14p1210h12p10-|--------------9-1012101214-------|
|----------------------------------------|-121012-10h12--------------------|

|----------------14-12-14-12h14-14/17-|-1715-12-17/19-17-15-15/19-|
|----------15p12----------------------|----------------------------|
|----121412---------------------------|----------------------------|
|-14----------------------------------|----------------------------|
|-------------------------------------|----------------------------|
|-------------------------------------|----------------------------|

|-17-15-17/19-17-15-17-|-17p15---17p15---17p15---15p12--12-|
|----------------------|------17------17------17------15---|
|----------------------|-----------------------------------|
|----------------------|-----------------------------------|
|----------------------|-----------------------------------|
|----------------------|-----------------------------------|

|------------------15-|---15p12---15p12--12--------------------|
|-12---------15p12----|--------15------15--15p12-12-15p12---12-|
|---14121412----------|----------------------------------14^---|
|---------------------|----------------------------------------|
|---------------------|----------------------------------------|
|---------------------|----------------------------------------|

|------------------------------------------|
|------------------------------------------|
|-14p12-14-14p12---------------------------|
|---------------14p12-14p12----------------|
|---------------------------14-1210h12p10-|
|------------------------------------------|
Comments