Blizzard - Mangled Dreams Chords & Tabs

 

Mangled Dreams Chords & Tabs

Blizzard Chords & Tabs

Version: 2 Type: Tab 0 ratings
1 star 2 stars 3 stars 4 stars 5 stars
comments

Mangled Dreams Tab

   
Mangled Dreams

 ---||----------------------------------|------------------------------------|
 ---||----------------------------------|---------------------------------0--|
 ---||o---------------------------------|-----------------------------0-2----|
 ---||o-----2/4-5-4\2-4================-|-----------------2/4-5-4\2-4--------|
 ---||----------------------------------|------------------------------------|
 ---||----------------------------------|------------------------------------|

 ---||--------2---2=======--------------|---------2---2=======---------------|
 ---||--------3---3=======--------------|---------3---3=======---------------|
 ---||o-------2---2=======--------------|---------2---2=======---------------|
 ---||o--0================------0-------|---0=================------0--------|
 -0-||-----------------------0-----0----|-----------------------0-------0----|
 ---||----------------------------------|------------------------------------|

|--------------------------------------|------------------------------------|
|----(0h)1-----------------------------|------------------------------------|
|----------------2---2=================|===2====----------------------------|
|--------------------------------------|------------------------------------|
|--------------------------------------|------------------------------------|
|--------------------------------------|------------------------------------|

|------------5---5=======--------------|---------5---5======----------------|
|------------6---6=======--------------|---------6---6======----------------|
|------------5---5=======--------------|---------5---5======----------------|
|--------3===============------3-------|---3================-------0--------|
|---------------------------0-----0----|-----------------------0-------0----|
|--------------------------------------|------------------------------------|

|--------------------------------------|------------------------------------|
|--------------------------------------|---------------------------------0--|
|--------------------------------------|-----------------------------0-2----|
|----------2/4-5-4\2-4================-|-----------------2/4-5-4\2-4--------|
|--------------------------------------|------------------------------------|
|--------------------------------------|------------------------------------|

|------------2---2=======--------------|---------2---2======----------------|
|------------3---3=======--------------|---------3---3======----------------|
|------------2---2=======--------------|---------2---2======----------------|
|-------0================------0-------|---0================-------0--------|
|---------------------------0-----0----|-----------------------0-------0----|
|--------------------------------------|------------------------------------|

|--------------------------------------|------------------------------------|
|----(0h)1-----------------------------|------------------------------------|
|----------------2---2=================|===2====----------------------------|
|--------------------------------------|------------------------------------|
|--------------------------------------|------------------------------------|
|--------------------------------------|------------------------------------|
[ Tab from: http://www.guitartabs.cc/tabs/b/blizzard/mangled_dreams_tab_ver_2.html ]
|------------5---5=======--------------|---------5---5==========------------|
|------------6---6=======--------------|---------6---6==========-----3\-----|
|------------5---5=======--------------|---------5---5==========-----0-\----|
|--------3===============------3-------|---3====================-----5\-----|
|---------------------------0-----0----|-------------------------------\----|
|--------------------------------------|------------------------------------|

|-------------------------------------|------------------------------------||
|--------2h3--2p0-----2==============-|--------2h3--2p0-----2=============-||
|-------------------------------------|-----------------------------------o||
|-------------------------------------|-----------------------------------o||
|-------------------------------------|------------------------------------||
|-------------------------------------|------------------------------------||

|  Asus2                    G5            Asus2                            ||
|-------------------------------------|------------------------------------||
|---0=================0------3\-------|---0=================0=====---------||
|---2=================2------0\-------|---2=================2=====--------o||
|---2======---2=======2------5\-------|---2======---2=======2=====---*----o||
|---------0===========0-------\-------|---------0===========0=====---0-----||
|-------------------------------------|------------------------------------||

To play this part on the Guitar it must be tuned down 1 1/2 steps
E|--------5---------7--7----7--5--------------------------|
B|------7-----------8--8----8--7--------------------------|
G|----7-------------9--9----9--7--------------------------|
D|---------------------0----------------------------------|
A|--0-----------0-----------------------------------------|
D|----------0---------------------------------------------|

E|--------5---------0----0----------------------7--7---5----|
B|------7-----------0----0------------0---------8--8---7----|
G|----7-------------0----0----------0-----------9--9---7----|
D|------------------2----2--------2-------------0-----------|
A|--0-----------2---------------------------0---------------|
D|----------2-------------------2-------0-------------------|

	        I have mangled dreams of you . . .
E|--------5-------------3--------------------------------------0----------|
B|------7------------3-----3--------------2-----------------0-----0-------|
G|----7-----------4-----------4--------2--------2--------0----------------|
D|-------------5--------------------4--------4--------2--------2----------|
A|--0---------------------------------------------------------------------|
D|----------5--------------------4-----------------2----------------------|

E|--------------0---------------------------------------------|
B|-----------0-----0-----------5--5-----------------3---------|
G|--------0-----------------6--------6-----------4-----4------|
D|-----2--------2--------7--------------7-----5-----------5---|
A|--------2-----------------------7--------------------5------|
D|--2-----------------7--------------------5------------------|

E|--------------2---------------------------------------2-----|
B|-----------3-----3----3-------5--------5-----------3--3-----|
G|--------2-------------4-------------6-----------4-----4-----|
D|-----4----------------4----------7-----------4--------4-----|
A|--2-------------------2-------0-----------2-----------2-----|
D|------------------------------------------------------------|

E|-----------2--------7--7--5---------------5--------7--7--5-----|
B|--------3-----------8--8--7------------7-----------8--8--7-----|
G|-----4--------------9--9--7---------7--------------9--9--7-----|
D|--4-----------------0------------------------------0-----------|
A|--2--------------0---------------0--------------0--------------|
D|--------------0------------------------------0-----------------|
Comments