Blizzard - Grand Spaces Party Chords & Tabs

 

Grand Spaces Party Chords & Tabs

Blizzard Chords & Tabs

Version: 2 Type: Tab 0 ratings
1 star 2 stars 3 stars 4 stars 5 stars
comments

Grand Spaces Party Tab

   
GRAND SPACE'S PARTY
Blizzard
(Agusto)

INTRO:
   [Synthesizers]    Em(add9)
e-|--------------||----0-----------------------------------|
B-|--------------||----0-----------------------------------|
G-|--------------||----0-----------------------------------|
D-|--------------||----4-----------------------------------|
A-|--------------||----2-----------------------------------|
E-|--------------||----0-----------------------------------|

      Cmaj7				Em(add9)
e-|-----0---------------------------|-----0----------------------------|
B-|-----0---------------------------|-----0----------------------------|
G-|-----0---------------------------|-----0----------------------------|
D-|-----2---------------------------|-----4----------------------------|
A-|-----3---------------------------|-----2----------------------------|
E-|---------------------------------|-----0----------------------------|
					  ^
VERSE:
       Em
e-|-----0---------------------------|
B-|-----0---------------------------|
G-|-----0---------------------------|
D-|-----2---------------------------|
A-|-----2---------------------------|
E-|-----0---------------------------|

main riff
F5  X8                    A#5             D#5             B5
|-------------------------------------------------------------------------|
|-------------------------------------------------------------------------|
|-10-10-10-10-10-10-10-10-----------------8-8-8-8-8-8-8-8-----------------|
|-10-10-10-10-10-10-10-10-6-6-6-6-6-6-6-6-8-8-8-8-8-8-8-8-8-8-8-8-8-8-8-8-|
|--8--8--8--8--8--8--8--8-6-6-6-6-6-6-6-6-6-6-6-6-6-6-6-6-8-8-8-8-8-8-8-8-|
|-------------------------4-4-4-4-4-4-4-4-----------------6-6-6-6-6-6-6-6-|
[ Tab from: http://www.guitartabs.cc/tabs/b/blizzard/grand_spaces_party_tab_ver_2.html ]
|-8-8-8-8-8-8-8-8-8-8-8-8-8-8-8-8-6-6-6-6-6-6-6-6-6-6-6-6-6-6-6-6-|
|-6-6-6-6-6-6-6-6-9-9-9-9-9-9-9-9-4-4-4-4-4-4-4-4-6-6-6-6-6-6-6-6-|
|-----------------------------------------------------------------|
|-----------------------------------------------------------------|
|-----------------------------------------------------------------|
|-----------------------------------------------------------------|

|------------------------------------------------|
|------------------------------------------------|
|--------10:--------8:--------8--8/10--3-3-5-----|
|-8h10--------5h6-------3h5------------------3:--|
|------8----------6---------6--------------------|
|------------------------------------------------|

You also hear an F Bar Chorded behind that instrumental part just above

"You reach to the sky....."
|-----8:------6:------6:--1-----4--3-----|
|---6-------4-------4----------------4/6-|
|-5-------5-------3-----------3----------|
|---------------------------3------------|
|----------------------------------------|
|----------------------------------------|

  F   F G#  < A#                     F  F  F F G# G# < < A# A# < <  <
|-1:--1-4:--4-6--6--6-6-6--6--6--6-6-1--1--1-1-4--4--4-4-6--6--6-6--6**---|
|-1:--1-4:--4-6--6--6-6-6--6--6--6-6-1--1--1-1-4--4--4-4-6--6--6-6--6**---|
|-2:--2-5:--5-7--7--7-7-7--7--7--7-7-2--2--2-2-5--5--5-5-7--7--7-7--7**---|
|-3:--3-6:--6-8--8--8-8-8--8--8--8-8-3--3--3-3-6--6--6-6-8--8--8-8--8**---|
|-3:--3-6:--6-8--8--8-8-8--8--8--8-8-3--3--3-3-6--6--6-6-8--8--8-8--8**---|
|-1:--1-4:--4-6--6--6-6-6--6--6--6-6-1--1--1-1-4--4--4-4-6--6--6-6--6**---|

final note
  F
|-1:--|
|-1:--|
|-2:--|
|-3:--|
|-3:--|
|-1:--|
Comments