Blizzard - Feeling Stoned Chords & Tabs

 

Feeling Stoned Chords & Tabs

Blizzard Chords & Tabs

Version: 2 Type: Tab 0 ratings
1 star 2 stars 3 stars 4 stars 5 stars
comments

Feeling Stoned Tab

   
FEELING STONED
Blizzard

TUNING: E B E G B E

This song is played by Billy on a Pedal or Lap steel guitar, but a
electric guitar and a slide works just fine.

Bass:
G-|----------------------------------------------------------------------------------|
D-|----------------------------------------------------------------------------------|
A-|----2---(2)--(2)--(2)--(2)--(2)--(2)---------2---(2)--(2)--(2)--(2)--(2)--(2)-----|
E-|----------------------------------------------------------------------------------|

G-|------------------------------------------------------------------------------------||
D-|------------------------------------------------------------------------------------||
A-|-----------------------------------------------------------------2---2---2---2---2--||
E-|--5---5---5---5---5---5---5---5---5---5---5---5---5---5---5---5---------------------||

Bass cont. similie until change in tempo

Guitar: (w/slide)
E-|------------------------------------------------------------------------------------|
B-|------------------------------------------------------------------------------------|
G-|------------------------------------------------------------------------------------|
E-|------------------------------------------------------------------------------------|
B-|------------------------------7----------------------5-/-7--------------------------|
E-|------------------------------5----------------------3-/-5--------------------------|

E-|----------------------------------------------7-------------------------------------|
B-|-------------------------------------------/7--------7-\--3-------------------------|
G-|---------------------------------------------------------------2-/4-----------------|
D-|------------------------------------------------------------------------------------|
A-|--9-------(7)\---------2-/9---------------------------------------------------------|
E-|--7-------(9)\---------4-/7---------------------------------------------7-/9--------|

E-|------------------------------------------------------7--5/7-----------------------|
B-|----------------------------------------------------/7---------7--5/7--------------|
G-|-----------------------------------------------------------------------7\6\4--2/4--|
D-|-----------------------------------------------------------------------------------|
A-|-----5-------------5-----------/9--------------------------------------------------|
E-|-----7-------------7-----------/7--------------------------------------------------|

E-|-----------------------------------------------------7-7---------------------------|
B-|--------------------------------------------------/7------/7--5--------------------|
G-|-------------------------------------------------------------------/7--6/----2--4--|
D-|-----------------------------------------------------------------------------------|
A-|-----------------------------------------------------------------------------------|
E-|-----------------------------------------------------------------------------------|

(Change in tempo)
Dr. Who Part
3:02

Bass  (w/delay effect)
G-|-----------------------------------------------------------------------------------|
D-|-----------------------------------------------------------------------------------|
A-|---2-----------0---2-------0---2----9----8----14--------5---2----------------------|
E-|-----------------------------------------------------------------------------------|

G-|-----------------------------------------------------------------------------------|
D-|-----------------------------------------------------------------------------------|
A-|---7--2------9---14-------5--2------8--2---------14--18--2---------8---2-----------|
E-|-----------------------------------------------------------------------------------|

E|-15\14-(14)\--17\14-(14)\---19~~~~~~~~---|
B|-----------------------------------------|
G|-----------------------------------------|
E|-----------------------------------------|
B|-----------------------------------------|
E|-----------------------------------------|

3:46
E|-------------------7-----------------7---------7/10\7----------------------------7--7/10\7-10/14\10-14/19\17\14\\/19--|
B|----------------/7---7\------------7---7/10\7----------7\6--3-----------------/7--------------------------------------|
G|-------------------------7\5~-5/7------------------------------3/4\2-(2)/4--------------------------------------------|
E|----------------------------------------------------------------------------------------------------------------------|
B|-7\\\---5///7---------------------------------------------------------------------------------------------------------|
E|----------------------------------------------------------------------------------------------------------------------|

FEEDBACK
E|-----------5~~~~--------------------17--21-21-21\17-15/17--21\17/19--14\12\10--14/17/19/21------------|----------|
B|-----------------7\5\3\2---------------------------------------------------------------------/7~~~~~~~|----------|
G|-------------------------/4\2/4-----------------------------------------------------------------------|----------|
E|------------------------------------------------------------------------------------------------------|----------|
B|--5//7~~~---------------------------------------------------------------------------------------------|----------|
E|---------------------------------1/3------------------------------------------------------------------|----------|

|-17-17-17--21\16/17\14--10\9\7----|
|----------------------------------|
|----------------------------------|
|----------------------------------|
|----------------------------------|
|----------------------------------|

Billy w/slide 2:49
E|---------------------------------7--------------------------------------------7-5/7-------------------------|
B|------------------------------/7---(7)\3~~~~-------------------------------/7-------7-5/7-------------------|
G|---------------------------------------------2//4-----------------------------------------7\6\4--2/4--------|
E|------------------------------------------------------------------------------------------------------------|
B|--5---////5----7\\\\\-////7------------------------5//7--5~~~~~-3//5---7------------------------------------|
E|------------------------------------------------------------------------------------------------------------|

Billy:
   (Bm)		          (Gtr. 1 out)
E-|---17--14-\------------19\---------------------------------------------------------|
B-|-----------------------------------------------------------------------------------|
G-|-----------------------------------------------------------------------------------|
D-|-----------------------------------------------------------------------------------|
A-|-----------------------------------------------------------------------------------|
E-|-----------------------------------------------------------------------------------|
[ Tab from: http://www.guitartabs.cc/tabs/b/blizzard/feeling_stoned_tab_ver_2.html ]
E-|-----------------------------------------------------------------------------------|
B-|-----------------------------------------------------------------------------------|
G-|-----------------------------------------------------------------------------------|
D-|-------------------------------------------9------------------------------9--------|
A-|-----------------------------------------------------------------------------------|
E-|------------7-\*--------------------------------------2\-------------2-------------|

Bass:
G-|-----------------------------------------------------------------------------------|
D-|-----------------------------------------------------------------------------------|
A-|---14-----2----------------5--2---------------14-----------------------------------|
E-|-----------------------------------------------------------------------------------|
                                              "Brick and brick I will be stoned"

E-|------------/10-7-2-5-7------------------------------------------------------------|
B-|--------------------------9(10)9\--------------------------------------------------|
G-|-----------------------------------------------------------------------------------|
D-|-----------------------------------------------------------------------------------|
A-|-----------------------------------------------------------------------------------|
E-|-----------------------------------------------------------------------------------|

(Resume normal tempo - Bass resume as normal)

E-|-----------------------------------------------7-7---------------------------------|
B-|--------------------------------------------/7------7--\--3--/--5------------------|
G-|--------------------11--\----------------------------------------------------------|
D-|-----------------------------------------------------------------------------------|
A-|--9------\7-/9--------------7-/-9---------------------------------5-\-3---3-\-5*---|
E-|--7------\5-/7--------------5-/-7--------------------------------------------------|
											           *let ring

E-|--------7-7-----------------7/10--7------------------------------------------------|
B-|-----/7--------7/10--7-------------------7\--6-------3*----------------------------|
G-|-----------------------------------------------------------3-/-4-\-2---4*----------|
D-|-----------------------------------------------------------------------------------|
A-|-----------------------------------------------------------------------------------|
E-|-----------------------------------------------------------------------------------|
									*let ring
E-|------7-7-----7/10--7---10/14--14----14/19--17----14\-----/19---(7)---17\----------|
B-|---/7------7-----------------------------------------------------------------------|
G-|-----------------------------------------------------------------------------------|
D-|-----------------------------------------------------------------------------------|
A-|-----------------------------------------------------------------------------------|
E-|-----------------------------------------------------------------------------------|

E-|---------------/5------------------------------------------------------------------|
B-|----------------------7----5----3----2---------------------------------------------|
G-|--------------------------------------------4----2----/4*--------------------------|
D-|-----------------------------------------------------------------------------------|
A-|----/9-----------------------------------------------------------5--/---7----------|
E-|----/7-----------------------------------------------------------3--/---5----------|

(Tiffany enters)

Billy:
E-|-17--19/21--21--21\17-15-17-17--14/17--/21-21-17-19-\--18--14\11-11--17-19--22-22--|
B-|-----------------------------------------------------------------------------------|
G-|-----------------------------------------------------------------------------------|
D-|-----------------------------------------------------------------------------------|
A-|-----------------------------------------------------------------------------------|
E-|-----------------------------------------------------------------------------------|

Tiffany:
E-|------------------------------------------------------5--7-10--12-14--17-19--21-26-|
B-|------------------------------------------/7-7-------------------------------------|
G-|-----------------------------------------------------------------------------------|
D-|-----------------------------------------------------------------------------------|
A-|----------------4-/-7--------9-\-----2---------------------------------------------|
E-|----------------2-/-5--------7-\---------------------------------------------------|

Billy:
   (Bm)       w/bar  w/bar  w/bar                    A
E-|--19----------------------------------11-----------------------/16-/16--16/17---21-|
B-|-----------/7------7------3--\-----------/9--10------------------------------------|
G-|-----------------------------------------------------2--/4--2----------------------|
D-|-----------------------------------------------------------------------------------|
A-|-----------------------------------------------------------------------------------|
E-|-----------------------------------------------------------------------------------|

Tiffany:
E-|--22-19---/19--15--/14--10--\--/17-\-14--/22-19-/12\---------------/17----17-------|
B-|---------------------------------------------------------/12\/10--------------17---|
G-|-----------------------------------------------------------------------------------|
D-|-----------------------------------------------------------------------------------|
A-|-----------------------------------------------------------------------------------|
E-|-----------------------------------------------------------------------------------|

Billy:
E-|--17--15--14---14---/17-\--15--13--11--10---/10------------------------------------|
B-|-----------------------------------------------------------------------------------|
G-|-----------------------------------------------------------------------------------|
D-|------------------------------------------------------------9*-\-------------------|
A-|-----------------------------------------------------------------------------------|
E-|-----------------------------------------------------------------------------------|
                                                              *long slide down
Tiffany:
E-|--------------------/14------------------------------------------------------------|
B-|--17--17---15\-----------17--15---/15--12--10--7-----------------------------------|
G-|-----------------------------------------------------------------------------------|
D-|-----------------------------------------------------------9*-\--------------------|
A-|-----------------------------------------------------------------------------------|
E-|-----------------------------------------------------------------------------------|
                                                               *long slide down
Comments