Blizzard - Cocaine Chords & Tabs

 

Cocaine Chords & Tabs

Blizzard Chords & Tabs

Version: 2 Type: Tab 0 ratings
1 star 2 stars 3 stars 4 stars 5 stars
comments

Cocaine Tab

   
Cocaine
Blizzard  -  Under the Sun  (1994)

Tune down 1 1/2 steps

fig A
--------------------------------0--------------2--2--------------|
------------------------------1---1----------3------3------------|
----------------------------0-------0------2----------2----------|
--9-11--12---7---9--------2-----------0--0--------------0--------|
--7--9--10---5---7---0--3----------------------------------------|
-----------------------------------------------------------------|

fig B
------------------------------------|
------------------------------------|
------------------------------------|
--9--9-----9------7--7-------5------|
--7--7--0--7---0--5--5---5/7--------|
------------------------------------|

fig C
-------------------------------------0------|
----------------------------1------3--------|
--------------------------0------2----------|
------------------------2------0------------|
--5h7-5-4-----------0-3---------------------|
----------5--6\-----------------------------|

Fig D
----------0-----------------------------------0------------------0------=
--------0---0-------------0-------0---------0---0--------------0---0----=
------0-------0---------0-------0---------0-------0----------0-------0--=
----9-----------9-----7-------4---------5-----------5------4------------=
--7-----------------5-------4---------3------------------2--------------=
------------------------------------------------------------------------=

Solo:
----------------------------12------------------------------------|
--12--15--15b-15b-15b-15b-------15---12---------------------------|
------------------------------------------15--14--12--------------|
------------------------------------------------------\7--5-------|
------------------------------------------------------------------|
------------------------------------------------------------------|

------------------------------------------------------------------|
------------------------------------------------------------------|
---------------------------------------------5--------------------|
-------5--7--7b-7b-7b--7--5--7----------5------7---------5--7-----|
--5h7---------------------------7--5h7-----7-------5h7------------|
------------------------------------------------------------------|


------------------------------------------------------------------|
------------------------------------------------------------------|
------------------------------------------------------------------|
--7b-7b--7--5--7b--7--5h7-----------5------5---------5--7---------|
---------------------------7--5h7------7------7--5h7--------------|
------------------------------------------------------------------|

---------------------------------------------------------15b--15b--|
------------15b--15b--15b--15b--12---------------------------------|
-------------------------------------15--12------------------------|
--7b--7--5-----------------------------------15--14--12------------|
-------------------------------------------------------------------|
-------------------------------------------------------------------|

--12-------12------------------------------------------|
------15b------15--12----------------------------------|
------------------------15--14--12---------------------|
-------------------------------------14\---------------|
-------------------------------------------------------|
-------------------------------------------------------|

fig E
-----------------------------------------------------------|
-----------------------------------------------------------|
-----------------------------------------------------------|
-----------------------------------------------------------|
---------10--10----------10--10----------10--10--12-12-12--|
--12--12---------12---12---------12---12---------10-10-10--|
[ Tab from: http://www.guitartabs.cc/tabs/b/blizzard/cocaine_tab_ver_2.html ]
Outro Solo:
|-12--12--12-----12---12-----12----12151215--12151215-12--12--12---|
|-15^-15^-15^^^-----------15^^^(15)-------------------15^-15^------|
|------------------------------------------------------------------|
|------------------------------------------------------------------|
|------------------------------------------------------------------|
|------------------------------------------------------------------|

|-(12)---12-----12151215--121512-------------------------------|
|----15^^^^(15)-------------------12--12--12--12--12--12--12---|
|---------------------------------14^-14^-14^-14^-14^-14^-14^--|
|--------------------------------------------------------------|
|--------------------------------------------------------------|
|--------------------------------------------------------------|

|-x\-----------------------------------------------------------|
|------12--15--17--17-------17----17-----17-----------15--12---|
|---14-14^-17^-19^-19^^^(20)19^---19^----19^--19^-19^-17^-14^--|
|--------------------------------------------------------------|
|--------------------------------------------------------------|
|--------------------------------------------------------------|

|-------------------------------------|-----------------12-|-------------|
|-------------------------------------|--------------------|-15--15^-----|
|-14-14--121412----14^--14-12---------|-1412----14^-14^----|-------------|
|---------------14------------14^(14)-|-----1412-----------|-------------|
|-------------------------------------|--------------------|-------------|
|-------------------------------------|--------------------|-------------|

|-12----------------|----12---12--------|------------------|
|----15-12----------|----12---12-12--12-|------------------|
|----------15-14-12-|-14^---14^--14^-14^|------------------|
|-------------------|-------------------|------------------|
|-------------------|-------------------|------------------|
|-------------------|-------------------|------------------|

|---------------------------|------------------------------|
|----12-15----12^-15-----12-|-15-----12-15-----12-15-------|
|-14^------14--------14^----|----14^-------14^-------14^---|
|---------------------------|------------------------------|
|---------------------------|------------------------------|and so on...
|---------------------------|------------------------------|

|--------------121412--------------------12----------------|
|-121512151215--------151215121512151215----1512151215-----|
|----------------------------------------------------------|
|----------------------------------------------------------|
|----------------------------------------------------------|
|----------------------------------------------------------|

|-------------||-121512151215--------------121512----------|
|-121512151215||--------------121512151215--------121512---|
|-------------||-------------------------------------------|
|-------------||-------------------------------------------|
|-------------||-------------------------------------------|and so on...
|-------------||-------------------------------------------|

|-15-121512----12-12---12--|---12----12--|-12-12-12-12--15-15-15--|
|-----------15---------15^-|---15^---15^-|-15^15^15^15^-18^18^18^-|
|--------------------------|-------------|------------------------|
|--------------------------|-------------|------------------------|
|--------------------------|-------------|------------------------|
|--------------------------|-------------|------------------------|

|----15-121512------------------------|--------------------|
|-15^----------15-121412--------------|-----12-15-15^------|
|------------------------14-121412----|-14^----------------|
|----------------------------------14-|--------------------|
|-------------------------------------|--------------------|
|-------------------------------------|--------------------|

|-12-------|------------------------------12---------------|
|----15-12-|--12------15------12-----15---15^--------------|
|----------|--14^-----17^-----14^----17^-------------------|
|----------|-----------------------------------------------|
|----------|-----------------------------------------------|
|----------|-----------------------------------------------|
Comments