Blizzard - Captured Chords & Tabs

 

Captured Chords & Tabs

Blizzard Chords & Tabs

Version: 1 Type: Tab 0 ratings
1 star 2 stars 3 stars 4 stars 5 stars
comments

Captured Tab

Captured
Blizzard  -  Captured    (1999)

Tune down 1 1/2 steps (C#)

To clear up any confusion, this song is played in the G position, 
but the guitar is tuned down 1 1/2 steps, so the song is based in E.

|----------------------------------------------------------
|----------------------------------------------------------
|----------------------------------7-----------------------
|---------------6------------------5-6---------------------
|-5-5-5-5-5-5-5-4----5-5-5-5-5-5-5---4---------------------
|-3-3-3-3-3-3-3------3-3-3-3-3-3-3-------------------------

|----------------------------------------------------------
|----------------------------------------------------------
|----------------------------------------------------------
|--10------------------------------------------------------
|--8---------11----------10--------------------------------
|------------9-----------8---------------------------------

|----------------------------------------------------------
|----------------------------------------------------------
|----------------------------------7-----------------------
|---------------6------------------5-6---------------------
|-5-5-5-5-5-5-5-4----5-5-5-5-5-5-5---4---------------------
|-3-3-3-3-3-3-3------3-3-3-3-3-3-3-------------------------

|--------------------------------------------------------------------
|--------------------------------------------------------------------
|-------2-3---2-----------------5-------2-3---2-----------------5----
|-----------5---3-5-2-3---2-3---5-----------5---3-5-2-3---2-3---5----
|-----0-----------------5-----5-3-----0-----------------5-----5-3----
|--------------------------------------------------------------------

|--------------------------------------------------------------
|--------------------------------------------------------------
|-----------------------------0---0-2-0-2-4-2-0----------------
|----0-0-0-0-0-0-0-0-0--0-2-4---4------------------------------
|--------------------------------------------------------------
|--------------------------------------------------------------
[ Tab from: http://www.guitartabs.cc/tabs/b/blizzard/captured_tab.html ]
|--------------------------------------------------------------
|--------------------------------------------------------------
|--7-----------------------------------------------------------
|--7--slowly move hand up fretboard, imitating a sliding sound
|--5-----------------------------------------------------------
|--------------------------------------------------------------

[The Live Version Of This Song Has This Accoustical Ballad Part]
|---------------------------------------------------------------------------
|-----------5-------8-------7-------7-------------5-------8-------7-------7-
|-------------5---------------7---------------------5---------------7-------
|-------7-------7-------7-------7-------------7-------7-------7-------7-----
|---------------------------------------------------------------------------
|-4/5-----------------------------------4/5---------------------------------

|--7---7---------------------------------------------
|----10---8-10-8-7-8---7-8-5-------------------------
|--------------------9-------7---5-4---5---4---------
|----------------------------------------------7-----
|----------------------------------------------------
|----------------------------------------------------

|----8---7-------8---7----------8---7------5--------------
|----------10----------10-------------10-5---8-7-5--------
|--9---9-------9---9----------9---9----------------7p5----
|------------------------------------------------------7--
|---------------------------------------------------------
|---------------------------------------------------------

|----------------------------------------------------
|----------------------------------------------------
|--4h5p4---4---------4-5---4-5---4-5-4---4-----------
|--------7---5-7---7-----7-----7-------7---7-5-------
|----------------------------------------------7-----
|----------------------------------------------------

|----------------------------------------------------------------------
|----------------------------------------------------------------------
|------------4------------------------------------4--------/9-7-5-4----
|------4h5-7---7---5-4-5-7-5-7-7------------4h5-7---7--5-7----------7--
|--7------------------------------------7------------------------------
|----------------------------------------------------------------------

|------7-----7-8-787---7---------------------------
|----10--8-10--------10---10-787-------------------
|--9---------------------9-------9-----------------
|--------------------------------------------------
|--------------------------------------------------
|--------------------------------------------------
Comments