Blizzard - Blizzard Chords & Tabs

 

Blizzard Chords & Tabs

Blizzard Chords & Tabs

Version: 2 Type: Tab 0 ratings
1 star 2 stars 3 stars 4 stars 5 stars
comments

Blizzard Tab

W/ distortion
e|---------------------------------------------------|
B|---------------------------------------------------|
G|---------------------------------------------------|
D|-0---5---------------------------------------------|
A|---------4H5H4H5H4H5H4H5H4H5/12--------------------|
E|-3-------------------------------------------------|

W/out distortion

e|---------------------------------------------------|
B|---------------------------------------------------|
G|---------------------------------------------------|
D|-0---5---------------------------------------------|
A|---------4-----------------------------------------|
E|-3-------------------------------------------------|

|-------------------------|--|
|-------------------------|--|
|-------------------------|--|
|-------------------------|--|
|---------3-5-6-3-5---3-5-|--|
|-3-3-3-6-----------6-----|--|

Solo:
|----------------------|------------------------------------------3--|
|----------------------|-----------------------3-----3~~~---3-----3--|
|----------------------|------------3~~~-------5^-----------5^-------|
|-5p3---5-----(5)^-5-5-|-3~~----3h5----------------------------------|
|-----5----------------|---------------------------------------------|
|----------------------|---------------------------------------------|

|-----------------|-------15----15--x--|----------------18^---18^----|
|--3--6---8--10---|-----15---18^-------|-18^--18^----15--------------|
|--5^-8^-10^-12^--|--17^---------------|-----------------------------|
|-----------------|--------------------|-----------------------------|
|-----------------|--------------------|-----------------------------|
|-----------------|--------------------|-----------------------------|
|--15-18p15--18p15---|-18^-15h18p15------15-15-----15----------------|
|----------18-----18-|-------------18-18-------18^-------------------|
|--------------------|-----------------------------------------------|
|--------------------|-----------------------------------------------|
|--------------------|-----------------------------------------------|
|--------------------|-----------------------------------------------|
[ Tab from: http://www.guitartabs.cc/tabs/b/blizzard/blizzard_tab_ver_2.html ]
|--15------------15-----15-----15-----15-----15-----15-----15-------|
|-----18-15----15-----15-----15-----15-----15-----15-----15--15~~---|
|-----------17^----17^----17^----17^----17^----17^----17^-----------|
|-------------------------------------------------------------------|
|-------------------------------------------------------------------|
|-------------------------------------------------------------------|

|----------15---------|----------------18^^^18p15---18^----15h18p15-----|
|--------15--------15-|-18^^----18^^--------------------------------18--|
|--14-17^----17-18----|-----15------15-----------(17)-------------------|
|---------------------|-------------------------------------------------|
|---------------------|-------------------------------------------------|
|---------------------|-------------------------------------------------|

|-15h18p15--18p15--15h18p15h18-15h18p15h18-15h18p15h18-15h18p15h18-18^--|
|---------18-----18-----------------------------------------------------|
|-----------------------------------------------------------------------|
|-----------------------------------------------------------------------|
|-----------------------------------------------------------------------|
|-----------------------------------------------------------------------|

|-18^^^--18p15---------15-15--------------|------15-----------------------|
|-------------18-18-18^------18-15--------|----15--18p15------------------|
|---------------------------------17-15^--|-17^---------17-15^------------|
|-----------------------------------------|---------------------17p15h17--|
|-----------------------------------------|-------------------------------|
|-----------------------------------------|-------------------------------|

|---------------15-----15-----15----------------------|
|-------------15-----15-----15---18^-18^-18^----------|
|-------15-17^----17^----17^--------------------------|
|--15h17----------------------------------------------|
|-----------------------------------------------------|
|-----------------------------------------------------|

Ending: with Wah:
|-3----------------------------3---------------------------|
|-3----------------------------3---------------------------|
|-0--------------3-------------0---------------3-----------|
|-0--------------3-------------0---------------3-----------|
|----------------1-----------------------------1-----------|
|-3--------------1-------------3---------------1-----------|

|----------------------------------------------------------|
|----------------------------------------------------------|
|-5-----5-5-5-5--5-5-5--3---3-3-3-3---3-3-3---5------------|
|-5-----5-5-5-5--5-5-5--3---3-3-3-3---3-3-3---5------------|
|-5-----5-5-5-5--5-5-5--1---1-1-1-1---1-1-1---5------------|
|-3-----3-3-3-3--3-3-3--1---1-1-1-1---1-1-1---3------------|
Comments