Blizzard - Between Heaven And Hell Chords & Tabs

 

Between Heaven And Hell Chords & Tabs

Blizzard Chords & Tabs

Version: 1 Type: Tab 0 ratings
1 star 2 stars 3 stars 4 stars 5 stars
comments

Between Heaven And Hell Tab

   
##################################################################################
# This file is the author's own work and represents their interpretation of the  #
# song. You may only use this file for private study, scholarship, or research.  #
##################################################################################

Blizzard
Between Heaven And Hell  -  Captured (1991)

Figure 1
|--------------------------------|--------------------------------|
|--------------------------------|----------------3-3----3--------|
|--------------------------------|----------------2-2--x-2--------|
|9---------------11------12------|5---------------0-0--x-0--------|
|7---------------9-------10------|3-------------------------------|
|--------------------------------|--------------------------------|

|--------------------------------|--------------------------------|
|--------------------------------|--------------------------------|
|--------------------------------|--------------------------------|
|9---------------11------12------|14--1211-9----------------------|
|7---------------9-------10------|12--10-9-7----------------------|
|--------------------------------|--------------------------------|

|--------------------------------|--------------------------------|
|--------------------------------|----------------3-3----3-3------|
|--------------------------------|----------------2-2----2-2------|
|9---------------11------12------|5---------------0-0----0-0------|
|7---------------9-------10------|3-------------------------------|
|--------------------------------|--------------------------------|

|--------------------------------|--------------------------------|
|--------------------------------|--------------------------------|
|--------------------------------|--------------------------------|
|9---------------11------12------|14--1211-9-----------------0h2--|
|7---------------9-------10------|12--10-9-7-------------0h2------|
|--------------------------------|--------------------------------|

Figure 2
|--------------------------------|--------------------------------|
|--------------------------------|--------------------------------|
|--------------------------------|--------------------------------|
|--------------------------------|--------------------------------|
|--------------------------------|--------------------------------|
|0---0-0-0---0-0-0---0-0-0---0-0-|0---0-0-0---0-0-0---0-0-0---0-0-|

CD
So it's on and on and on,  between heaven and hell
Oh, well.

Figure 3 (backing guitar plays fig 2)

|--------------------------------|------------------------------------|
|------------------------12-----|------------------------------------|
|------------------------12-----|------------------------------------|
|------------------------12-----|-------------7----------------------|
|--------9-10-7------------------|--------9-10--------10-9-7----------|
|-0-0-0----------0--0-0----------|-0--0-0-----------0-----------------|

|--------------------------------|------------------------------------|
|------------------------12-----|------------------------------------|
|------------------------12-----|------------------------------------|
|------------------------12-----|-------------7----------------------|
|--------9-10-7------------------|--------9-10--------10-9-7----------|
|-0-0-0----------0--0-0----------|-0--0-0-----------0-----------------|

|--------------------------------|--------------------------------|
|--------------------------------|--------------------------------|
|--------------------------------|--------------------------------|
|-9------------------------------|--------------------------------|
|-7------------------------------|--------------------------------|
|--------------------------------|--------------------------------|

         C                D
So  it's on and on and on,
         C                D
Oh, it's on and on and on.
         C                D
It goes on and on and on,  between heaven and hell

This is the mini-bridge in the middle where Tiffany is singing 
"Ooooohhh...oohhh..ohh....yeah yeah yeaaaaaahhhh..."

|-5--|-----|--5--|--3--|------|-----|--5------------------|
|-8--|--7--|--6--|--5--|--8---|--7--|--5------------------|
|-5--|--7--|--5--|--5--|--7---|--7--|--6------------------|
|-5--|--7--|--7--|--5--|--9---|--7--|--7------------------|
|-7--|--5--|--5--|--3--|--10--|--5--|--7------------------|
|-5--|-----|--5--|--3--|--7---|-----|--5------------------|then go to next verse.

         C                D                 fig2
And it's on and on and on, on and on and on and on and on and on
[ Tab from: http://www.guitartabs.cc/tabs/b/blizzard/between_heaven_and_hell_tab.html ]
on and on and on and on and on and on.

continue Fig2

Solo
|----------|----------|----------|----------|----------|
|----------|----------|----------|----------|-12------|
|----------|----------|----------|----------|-12------|
|-7(9)-----|------(7)-|----------|----14-12-|----------|
|----------|----------|----------|----------|----------|
|----------|----------|0---------|----------|----------|

|--------------------------------------|--------------------------|
|--------------------------------------|--------------------------|
|14-12----14-12-------12----------12---|--------------------------|
|------14-------14-14----12-12h14----12|12h14-14-14-14-----------|
|--------------------------------------|--------------------------|
|--------------------------------------|--------------------------|

|----------|----------|----------|-------------------------------------|
|----------|-(15)17---|----------|12-15-15-12--------------------------|
|----------|----------|----------|------------14-14-12-----------------|
|----------|----------|----------|---------------------14-12h14-14-12--|
|----------|----------|----------|------------------------------------4|
|----------|----------|----------|-------------------------------------|

|--------------------------------|-------------------------------------|
|--------------------------------|-----------------------12-12h15-15-15|
|--------------------------------|--------------12--12h14--------------|
|--------------------------------|---12-12-12h14--14-------------------|
|12-14-14-10-12-12-9-10-9-10-9-10|/14----------------------------------|
|--------------------------------|-------------------------------------|

|12h15-12-15----------------------------------|
|-----------12h15-15-15-----------------------|
|----------------------12h14-14-14-12h14------|
|----------------------------------------12h14|
|---------------------------------------------|
|---------------------------------------------|

|---------------------------------|-------------------------12---|
|---------------------------------|------12-15--12-15--12-15--12-|
|-----12-14-14-14-12---------12-12|14^16------14-----14----------|
|12-14---------------14-14-14-----|------------------------------|
|---------------------------------|------------------------------|
|---------------------------------|------------------------------|

|---12-----|----------14-15-17-15-|----------15/17--|
|-15-------|-15^17--17------------|-17-17-17--------|
|----------|----------------------|-----------------|
|----------|----------------------|-----------------|
|----------|----------------------|-----------------|
|----------|----------------------|-----------------|

|17^19--17^19--17-15----15------------|--------------------------|
|--------------------19----19-17-15-17|17^20-----17---------17---|
|-------------------------------------|-------16----16---15^17---|
|-------------------------------------|--------------------------|
|-------------------------------------|--------------------------|
|-------------------------------------|--------------------------|

|----------|--19------|-/--------|---------|----------|22--------|
|----------|----17-20-|-20(22)---|------20--|-22^24----|---17s20--|
|--19(21)--|19--------|----------|----------|----------|----------|
|----------|----------|----------|----------|----------|----------|
|----------|----------|----------|----------|----------|----------|
|----------|----------|----------|----------|----------|----------|

|----------|----------|---------------------|---------------------|
|--20(22)--|----------|-/--------15--------|-----------/--------|
|----------|-----21---|-19----21----16-15-14|-------12--12-14-12--|
|----------|---21--21-|---------------------|---------14--------14|
|----------|----------|---------------------|---------------------|
|----------|----------|---------------------|---------------------|

|-------------------14-15--|-14---15/17-----15-17|-(19)-15--------|
|-------------12-15--------|---------------------|--------17------|
|-------12-14--------------|---------------------|----------------|
|-12-14--------------------|---------------------|----------------|
|--------------------------|---------------------|----------------|
|--------------------------|---------------------|----------------|

|----------|/-----------------------|----------------------------|
|--20/22---|(24)22(24)22(24)22(24)22|(24)22(24)22(24)22(24)-------|
|----------|------------------------|-----------------------------|
|----------|------------------------|-----------------------------|
|----------|------------------------|-----------------------------|
|----------|------------------------|----------------------They . . .
Comments