Blizzard - Believe Chords & Tabs

 

Believe Chords & Tabs

Blizzard Chords & Tabs

Version: 1 Type: Tab 0 ratings
1 star 2 stars 3 stars 4 stars 5 stars
comments

Believe Tab

   
##################################################################################
# This file is the author's own work and represents their interpretation of the  #
# song. You may only use this file for private study, scholarship, or research.  #
##################################################################################

Tabulature for "Believe"
Off the album "Captured"
Written by Savatage

--------------------------------------------------------------------------------


C=3De-3  G=3De-3  Bb=3De-1  F=3De-1  Am=3De-0               =20
  B-5    B-3     B-3    B-1     B-1                The song is in the key
  G-5    G-4     G-3    G-2     G-2                of Bb major.
  D-5    D-5     D-3    D-3     D-2
  A-3    A-5     A-1    A-3     A-0
  E-X    E-3     E-X    E-1     E-X

pick slide
E--|-----------------------------------------------------------------------
B--|-----------------------------------------------------------------------
G--|--------5----------------------------------3---------------------------
D--|-------5------------------5---------------3-------------------3-------
A--|-------3------------------5---------------1-------------------3-------
E--|--------------------------3-----------------------------------1-------
    These   childhood   eyes,    

E--|-------------------------------------------------------------
B--|-------------------------------------------------------------
G--|---5---------------------------------------------------------
D--|---5--------------------5--------------------3---------------
A--|---3--------------------5--------------------3---------------
E--|------------------------3--------------------1---------------
   For bits of string, 

E--|---------------------------------------------------------------
B--|---------------------------------------------------------------
G--|----5----------------------------------3-----------------------
D--|----5------------------5---------------3---------------3-------
A--|----3------------------5---------------1---------------3-------
E--|-----------------------3-------------------------------1-------
   And when you had,      

E--|---------------------------------------------------------1--1--------
B--|---------------------------------------------------------1--1--------
G--|---5-----------------------------------------------------------10-9--
D--|---5--------------------5--------------------3-----------------------
A--|---3--------------------5--------------------3-----------------8--7--
E--|------------------------3--------------------1-----------------------
    to get you in,      and pay for  sins,        repeated

E--|-------------------------3--3--3-3------------------------1--1-------
B--|-------------------------3--3--3-3------------------------1--1-------
G--|----------------------------------------------------------------10-9-
D--|----5--------------------------------3-------------------------------
A--|----5--------------------------------3--------------------------8--7-
E--|----3--------------------------------1-------------------------------
and for all the years ya borrowed, and for all the tears ya cried,

                      h p
E--|-----------------7^8^7---------------------------------
B--|-----------------------8-------------------------------
G--|-12----------------------7-----------------------------
D--|-----5-----------------------------3-------------------
A--|-10--5-----------------------------3-------------------
E--|-----3-----------------------------1-------------------
     For all the fears you had to keep inside   yeahhh.

E--|----------------------------------------------------------------
B--|----------------------------------------------------------------
G--|--5--------------------------2--------------------------5-------
D--|--5-----------5--------------2-------------3------5-----5-------
A--|--3-----------5--------------0-------------3------5-----3-------
E--|--------------3----------------------------1------3-------------
    I am the way,   

E--|----------------------------------------------------------------
B--|----------------------------------------------------------------
G--|--5--------------------------2--------------------------5-------
D--|--5-----------5--------------2-------------3------5-----5-------
A--|--3-----------5--------------0-------------3------5-----3-------
E--|--------------3----------------------------1------3-------------
I hear your hopes, 

E--|----------------------------------------------------------------
B--|----------------------------------------------------------------
G--|--5--------------------------2--------------------------5-------
D--|--5-----------5--------------2-------------3------5-----5-------
A--|--3-----------5--------------0-------------3------5-----3-------
E--|--------------3----------------------------1------3-------------
  Don't turn away, 

E--|----------------------------------------------------------------
B--|----------------------------------------------------------------
G--|--5--------------------------2--------------------------5-------
D--|--5-----------5--------------2-------------3------5-----5-------
A--|--3-----------5--------------0-------------3------5-----3-------
E--|--------------3----------------------------1------3-------------
 I'll be right there, 

Keyboard (chorus) effect
    C  G
E--|----------------------------------------------------
B--|------------------8------------------------3--------
G--|---------------9-----10--9--------------4------5--4-
D--|-------10-------------------------5-----------------
A--|---10------10------------------5-----5--------------
E--|8---------------------------3-----------------------
   |
E--|----------------------------------------------------
B--|----------------------------------------------------
G--|5---------------------------------------------------
D--|5---------------------------5-----------------------
A--|3---------------------------5-----------------------
E--|----------------------------3-----------------------
     Yeaaaahhhhh

     Am    F  G         Continue chords
E--|------------------------------------------------------ throughout rest
B--|----------------5------------------------------------- of the song
G--|-------------5-----7--5---------10-------------12-----
D--|-------7--------------------10------10------12-----12-
A--|----7-----7--------------8--------------10------------
E--|-5----------------------------------------------------
   |
E--|------------------------------------------------------
B--|------------------------------------------------------
G--|-2----------------------------------------------------
D--|-2-----------------------3--------------5-------------
A--|-0-----------------------3--------------5-------------
E--|-------------------------1--------------3-------------
                                              I never

E--|------------------------------------------------------
B--|--------------------8------------------------3--------
G--|o----------------9-----10--9--------------4------5--4-
D--|o--------10-------------------------5-----------------
A--|-----10------10------------------5-----5--------------
E--|--8---------------------------3-----------------------
   |
E--|------------------------------------------------------
B--|------------------------------------------------------
G--|o-5---------------------------------------------------
D--|o-5---------------------------5-----------------------
A--|--3---------------------------5-----------------------
E--|------------------------------3-----------------------
1.  wanted to know        never wanted to see

E--|-------------------------------------------------------|
B--|----------------5--------------------------------------|
G--|-------------5-----7--5---------10-------------12-----o|
D--|-------7--------------------10------10------12-----12-o|
A--|----7-----7--------------8--------------10-------------|
E--|-5-----------------------------------------------------|
   |
E--|-------------------------------------------------------|
B--|-------------------------------------------------------|
G--|-2----------------------------------------------------o|
D--|-2-----------------------3--------------5-------------o|
A--|-0-----------------------3--------------5--------------|
E--|-------------------------1--------------3--------------|
1.  I wasted my time,    'till time wasted me


Keyboard effect (bells)
     C                          G
E--|----------------------------------------------------
B--|------------------8------------------------3--------
G--|---------------9-----10--9--------------4------5--4-
D--|-------10-------------------------5-----------------
A--|---10------10------------------5-----5--------------
E--|8---------------------------3-----------------------
   |
E--|----------------------------------------------------
B--|----------------------------------------------------
G--|5---------------------------------------------------
D--|5---------------------------5-----------------------
A--|3---------------------------5-----------------------
E--|----------------------------3-----------------------
[ Tab from: http://www.guitartabs.cc/tabs/b/blizzard/believe_tab.html ]
     A (note Am chord)       F              G              Continue bells
E--|------------------------------------------------------ until end of song
B--|----------------5------------------------------------- along with the
G--|-------------5-----7--5---------10-------------12----- chorus.
D--|-------7--------------------10------10------12-----12-
A--|----7-----7--------------8--------------10------------
E--|-5----------------------------------------------------
   |
E--|------------------------------------------------------
B--|------------------------------------------------------
G--|-2----------------------------------------------------
D--|-2-----------------------3--------------5-------------
A--|-0-----------------------3--------------5-------------
E--|-------------------------1--------------3-------------

E--|-------------------------------------------------------
B--|--------------------8------------------------3---------
G--|-----------------9-----10--9--------------4------5--4--
D--|---------10-------------------------5------------------
A--|-----10------10------------------5-----5---------------
E--|--8---------------------------3------------------------
   |                   h  p               h  p              
E--|-/12---12--13-15-13^15^13-12--13-15-13^15^13-12-13-12-- 
B--|-/13---13--15-17-15^17^15-13--15-17-15^17^15-13-15-13-- 
G--|--5---------------------------------------------------- 
D--|--5---------------------------5------------------------
A--|--3---------------------------5------------------------ 
E--|------------------------------3------------------------ 

E--|------------------------------------------------------ 
B--|----------------5-------------------------------------  
G--|-------------5-----7--5---------10-------------12-----  
D--|-------7--------------------10------10------12-----12-  
A--|----7-----7--------------8--------------10------------
E--|-5----------------------------------------------------
   |                    h  p              h  p
E--|-10-8----12-13-15-13^15^13-12-13-15-13^15^13-12-13-12-
B--|-12-10---13-15-17-15^17^15-13-15-17-15^17^15-13-15-13-
G--|-2----------------------------------------------------
D--|-2-----------------------3--------------5-------------
A--|-0-----------------------3--------------5-------------
E--|-------------------------1--------------3-------------


E--|-------------------------------------------------------
B--|--------------------8------------------------3---------
G--|-----------------9-----10--9--------------4------5--4--
D--|---------10-------------------------5------------------
A--|-----10------10------------------5-----5---------------
E--|--8---------------------------3------------------------
   |                   h  p               h  p
E--|-/12---12--13-15-13^15^13-12--13-15-13^15^13-12-13-12--
B--|-/13---13--15-17-15^17^15-13--15-17-15^17^15-13-15-13--
G--|--5----------------------------------------------------
D--|--5---------------------------5------------------------
A--|--3---------------------------5------------------------
E--|------------------------------3------------------------


E--|------------------------------------------------------
B--|----------------5-------------------------------------
G--|-------------5-----7--5---------10-------------12-----
D--|-------7--------------------10------10------12-----12-
A--|----7-----7--------------8--------------10------------
E--|-5----------------------------------------------------
   |                    h  p              h  p       
E--|-10-8----12--13-15-13^15^13-12--13-15-13^15^13-12------
B--|-12-10---13--15-17-15^17^15-13--15-17-15^17^15-13------
G--|-2-----------------------------------------------------
D--|-2-----------------------3--------------5--------------
A--|-0-----------------------3--------------5--------------
E--|-------------------------1--------------3--------------

E--|-------------------------------------------------------
B--|-------------------8------------------------3----------
G--|----------------9-----10--9--------------4------5--4---
D--|--------10-------------------------5-------------------
A--|----10------10------------------5-----5----------------
E--|-8---------------------------3-------------------------
   |   full bend                   full bend
E--|-12'(12)-8-------------------12'(12)-8-----------------
B--|-13'(13)-8-------------------13'(13)-8-----------------
G--|-5-----------------------------------------------------
D--|-5---------------------------5-------------------------
A--|-3---------------------------5-------------------------
E--|-----------------------------3-------------------------


E--|------------------------------------------------------
B--|----------------5-------------------------------------
G--|-------------5-----7--5---------10-------------12-----
D--|-------7--------------------10------10------12-----12-
A--|----7-----7--------------8--------------10------------
E--|-5----------------------------------------------------
   |
E--|-13'(13)-8---------------12--10--12--13--12--10--12--8
B--|-15'(15)-8---------------13--12--13--15--13--12--13--8
G--|-2----------------------------------------------------
D--|-2-----------------------3--------------5-------------
A--|-0-----------------------3--------------5-------------
E--|-------------------------1--------------3-------------

E--|-------------------------------------------------------
B--|-------------------8------------------------3----------
G--|----------------9-----10--9--------------4------5--4---
D--|--------10-------------------------5-------------------
A--|----10------10------------------5-----5----------------
E--|-8---------------------------3-------------------------
   |   full bend                   full bend
E--|-12'(12)-8-------------------12'(12)-8-----------------
B--|-13'(13)-8-------------------13'(13)-8-----------------
G--|-5-----------------------------------------------------
D--|-5---------------------------5-------------------------
A--|-3---------------------------5-------------------------
E--|-----------------------------3-------------------------


E--|------------------------------------------------------
B--|----------------5-------------------------------------
G--|-------------5-----7--5---------10-------------12-----
D--|-------7--------------------10------10------12-----12-
A--|----7-----7--------------8--------------10------------
E--|-5----------------------------------------------------
   |                                             p p
E--|-13'(13)-8----------------------p-p---------5^7^9-----
B--|-15'(15)-8---------------------7^8^10-----------------
G--|-2-----------------------7-9-7--------7-9-7-----------
D--|-2-----------------------3--------------5-------------
A--|-0-----------------------3--------------5-------------
E--|-------------------------1--------------3-------------

E--|--------------------------------------------------------
B--|--------------------8------------------------3----------
G--|o----------------9-----10--9--------------4------5--4---
D--|o--------10-------------------------5-------------------
A--|-----10------10------------------5-----5----------------
E--|--8---------------------------3-------------------------
   |=20
E--|--12----------------------------------------------12-13-
B--|--13----------------------------------------------13-15-
G--|o-5-----------------------------------------------------
D--|o-5---------------------------5-------------------------
A--|--3---------------------------5-------------------------
E--|------------------------------3-------------------------


E--|-------------------------------------------------------|
B--|----------------5--------------------------------------|
G--|-------------5-----7--5---------10-------------12-----o|
D--|-------7--------------------10------10------12-----12-o|
A--|----7-----7--------------8--------------10-------------|
E--|-5-----------------------------------------------------|
   |                                                       |
E--|-12---------------------15'(17)--------15--------------|
B--|-13---------------------17'(18)--------17--------------|
G--|-2----------------------------------------------------o|
D--|-2-----------------------3--------------5-------------o|
A--|-0-----------------------3--------------5--------------|
E--|-------------------------1--------------3--------------|

Repeat 4 times


E--|--------------------------------------------------------
B--|--------------------8------------------------3----------
G--|o----------------9-----10--9--------------4------5--4---
D--|o--------10-------------------------5-------------------
A--|-----10------10------------------5-----5----------------
E--|--8---------------------------3-------------------------
   |=20
E--|--12----------------------------------------------12-13-
B--|--13----------------------------------------------13-15-
G--|o-5-----------------------------------------------------
D--|o-5---------------------------5-------------------------
A--|--3---------------------------5-------------------------
E--|------------------------------3-------------------------
1.  I am the way               I am the light


E--|-------------------------------------------------------|
B--|----------------5--------------------------------------|
G--|-------------5-----7--5---------10-------------12-----o|
D--|-------7--------------------10------10------12-----12-o|
A--|----7-----7--------------8--------------10-------------|
E--|-5-----------------------------------------------------|
   |                                                       |
E--|-12---------------------15'(17)--------15--------------|
B--|-13---------------------17'(18)--------17--------------|
G--|-2----------------------------------------------------o|
D--|-2-----------------------3--------------5-------------o|
A--|-0-----------------------3--------------5--------------|
E--|-------------------------1--------------3--------------|
1.            I am the      dark inside the night


Piano arranged for guitar
E--|-------------8--------------------------8-----------
B--|----------------8--------------------------8--------
G--|-------------------7--------------------------7-----
D--|----------------------9--------------------------9--
A--|-----3----------------10--------3----------------10-
E--|-3--------------------------3-----------------------

E--|-------------8------------------------||
B--|----------------8---------------5-----||
G--|-------------------7------------5-----||
D--|----------------------9---------5-----||
A--|-----3----------------10--------3-----||
E--|-3--------------------------3---------||
                                    Believe
Comments