Blitzkid - Pumpkinpatch Murders Chords & Tabs

 

Pumpkinpatch Murders Chords & Tabs

Blitzkid Chords & Tabs

Version: 1 Type: Tab

Pumpkinpatch Murders Tab

   
Intro

E--------------------------------------------------------|
B--------------------------------------------------------|
G--------------------------------------------------------|
D---3--3--3--3--6--5--5--3--2--3-x--x--x-----------------|
A---3--3--3--3--6--5--5--3--2--3-x--x--x-----------------|
E---1--1--1--1--4--3--3--1--0--1-x--x--x-----------------| x4

After fourth time...

E-----|
B-----|
G-----|
D-2---|
A-2---|
E-0---|

Verse (Can't figure out the solo)

E--------------------------------------------------------|
B--------------------------------------------------------|
G---2-2-2-2---------5-5-5-5------------------------------|
D---2-2-2-2-3-3-3-3-5-5-5-5-5-5-5-5----------------------|
A---0-0-0-0-3-3-3-3-3-3-3-3-5-5-5-5----------------------|
E------------1-1-1-1--------3-3-3-3----------------------| x6

Bridge

E--------------------------------------------------------|
B--------------------------------------------------------|
G-------------------2-2-2-2-2-2-2-2----------------------|
D-3-3-3-3-2-2-2-2-2-2-2-2-2-2-2-2-3-3-3-3-2-2-2-2-3-3-3-3|
A-3-3-3-3-2-2-2-2-0-0-0-0-0-0-0-0-3-3-3-3-2-2-2-2-3-3-3-3|
E-1-1-1-1-0-0-0-0-----------------1-1-1-1-0-0-0-0-1-1-1-1|

E-----------|
B-----------|
G-----------|
D-5-5-5-5---|
A-5-5-5-5---|
E-3-3-3-3---|

Chorus
[ Tab from: http://www.guitartabs.cc/tabs/b/blitzkid/pumpkinpatch_murders_tab.html ]
E--------------------------------------------------------|
B--------------------------------------------------------|
G---3-3-3-3-----------6-6-6-6----------------------------|
D---3-3-3-3-4-4-4-4-5-6-6-6-6-6-6-6-6--------------------|
A---1-1-1-1-4-4-4-4-3-4-4-4-4-6-6-6-6--------------------|
E-----------2-2-2-2-1---------4-4-4-4--------------------| x2

Verse

E--------------------------------------------------------|
B--------------------------------------------------------|
G---2-2-2-2---------5-5-5-5------------------------------|
D---2-2-2-2-3-3-3-3-5-5-5-5-5-5-5-5----------------------|
A---0-0-0-0-3-3-3-3-3-3-3-3-5-5-5-5----------------------|
E------------1-1-1-1--------3-3-3-3----------------------| x6

Chorus

E--------------------------------------------------------|
B--------------------------------------------------------|
G---3-3-3-3---------6-6-6-6------------------------------|
D---3-3-3-3-4-4-4-4-6-6-6-6-6-6-6-6----------------------|
A---1-1-1-1-4-4-4-4-4-4-4-4-6-6-6-6----------------------|
E-----------2-2-2-2---------4-4-4-4----------------------| x6

Outro

E--------------------------------------------------------|
B--------------------------------------------------------|
G--------------------------------------------------------|
D---3--3--3--3--6--5--5--3--2--3-x--x--x-----------------|
A---3--3--3--3--6--5--5--3--2--3-x--x--x-----------------|
E---1--1--1--1--4--3--3--1--0--1-x--x--x-----------------| x4

E-----|
B-----|
G-----|
D-2---|
A-2---|
E-0---|

This is my first tab. If you have any comments, e-mail me at SeouKajima@gmail.com