Blitzkid - Cannibal Flesh Riot Chords & Tabs

 

Cannibal Flesh Riot Chords & Tabs

Blitzkid Chords & Tabs

Version: 2 Type: Bass Tab 0 ratings
1 star 2 stars 3 stars 4 stars 5 stars
comments

Cannibal Flesh Riot Bass Tab

   
Hey all,

I decided to write another bass tab, A second for this song on the internet, 
Because not only was the first not complete, but also, Contrary to my room mates 
belief, it was wrong too.
Anyhow, Here's my rendition of the song, Live style, no studio edits, Hope you 
like it. Any questions of additions just email me on "Glad-rags-and-body-bags@hotmail.com"

Thanks guys, Enjoy.

Intro
G----------------------------------|  x2
D----------------------------------|
A------------333/555---------------|
E--5-55-3-33-----------------------|

G----------------------------------| 
D----------------------------------|
A------------333/555-/7535---------| x1
E--5-55-3-33--------------5--------|

Verse (Same as Intro)
G----------------------------------|  x2
D----------------------------------|
A------------333/555---------------|
E--5-55-3-33-----------------------|
                                              
G----------------------------------| 
D----------------------------------|
A------------333/555-/7535---------| x1
E--5-55-3-33--------------5--------|


[ Tab from: http://www.guitartabs.cc/tabs/b/blitzkid/cannibal_flesh_riot_btab_ver_2.html ]
Chorus
G---------------------------------|  x3
D---------------------------------|
A--33333333-----------------------|
E----------3333333-55555555-233---|

G---------------------------------|  x1
D---------------------------------|
A--33333333-----------------------|
E----------3333333-55555-777777---|

Bridge

G---------------------------------|  x1
D---------------------------------|
A---------------------------------|        "These are words"
E-11111111-5555555-333333-55555-31|

G---------------------------------|  x1
D---------------------------------|
A---------------------------------|        "In my house"
E-11111111-333333333-555555555----|

G---------------------------------|  x1
D---------------------------------|
A------------------33333333-------|         "You might just have a nightmare on it's way"
E-11111111-3333333---------333333-|

G---------------------------------|  x1
D---------------------------------|
A-------------------------3333333-|         "A nightmare on it's way"
E-55555555-1111111-3333333--------|

G---------------------------------|  x1
D---------------------------------|
A---------------------------------|         "A Nightmare in it's way"  
E-333333-555555-111111-3333333----|
Comments