Blitz - Voice Of A Generation Chords & Tabs

 

Voice Of A Generation Chords & Tabs

Blitz Chords & Tabs

Version: 1 Type: Tab 0 ratings
1 star 2 stars 3 stars 4 stars 5 stars
comments

Voice Of A Generation Tab

Band: Blitz
Song: Voice of a Generation


tabbed by jam9383@yahoo.com


Intro

w/riff
e---------------------------------------------------------------------|
B---------------------------------------------------------------------|
G--9--------9---------------------------------------------------------|
D--9--------9---------------------------------------------------------|
A--7--------7---------------------------------------------------------|
E---------------------------------------------------------------------|

e---------------------------------------------------------------------|
B---------------------------------------------------------------------|
G--9-9-9-9---9-9-9-9--------------------------------------------------|
D--9-9-9-9---9-9-9-9--------------------------------------------------|
A--7-7-7-7---7-7-7-7--------------------------------------------------|
E---------------------------------------------------------------------|

Riff

e----4-4-5-5-4-0-0-0-0------4-4-5-5-4-0-0-0-0-------------------------|
B---------------------------------------------------------------------|
G---------------------------------------------------------------------|
D---------------------------------------------------------------------|
A---------------------------------------------------------------------|
E---------------------------------------------------------------------|

e--0-0-0-2-0-3-0-2-0--0-0-0-3-0-3-0-3-0---0-0-0-0---------------------|
B---------------------------------------------------------------------|
G---------------------------------------------------------------------|
D---------------------------------------------------------------------|
A---------------------------------------------------------------------|
E---------------------------------------------------------------------|

e--0-0-0-2-0-3-0-2-0--0-0-0-------------------------------------------|
B---------------------------------------------------------------------|
G---------------------------------------------------------------------|
D---------------------------------------------------------------------|
A---------------------------------------------------------------------|
E---------------------------------------------------------------------|

Verse
[ Tab from: http://www.guitartabs.cc/tabs/b/blitz/voice_of_a_generation_tab.html ]
e---------------------------------------------------------------------|
B---------------------------------------------------------------------|
G----------------------------9-9-9-9-9-9-9-9-9------------------------|
D--9-9-9-9-9-9--7-7-7-7-7-7--9-9-9-9-9-9-9-9-9------------------------|
A--9-9-9-9-9-9--7-7-7-7-7-7--7-7-7-7-7-7-7-7-7------------------------|
E--7-7-7-7-7-7--5-5-5-5-5-5-------------------------------------------|

Bridge

e---------------------------------------------------------------------|
B---------------------------------------------------------------------|
G--9----9----9----9---9--9--------------------------------------------|
D--9----9----9----9---9--9--------------------------------------------|
A--7----7----7----7---7--7--------------------------------------------|
E---------------------------------------------------------------------|

Solo

Startng and ending with riff
e---------------------------------------------------------------------|
B--5--8-8-8--5--3-3-3-5-5-8-10-10-8--5-8-5-8-----5-8-8-8-5-8-10\12----|
G---------------------------------------------------------------------|
D---------------------------------------------------------------------|
A---------------------------------------------------------------------|
E---------------------------------------------------------------------|

e---------------------------------------------------------------------|
B-12\14-15-14-15-15-17~-----------------------------------------------|
G---------------------------------------------------------------------|
D---------------------------------------------------------------------|
A---------------------------------------------------------------------|
E---------------------------------------------------------------------|

Outro

e---------------------------------------------------------------------|
B--8-8-8-5-3-3-3-3-5-8-10-8-10-8-5-8-5-8------------------------------|
G---------------------------------------------------------------------|
D---------------------------------------------------------------------|
A---------------------------------------------------------------------|
E---------------------------------------------------------------------|

e---------------------------------------------------------------------|
B---5-8-8-8-5-3-3-3-3-5-8-10-12/5~------------------------------------|
G---------------------------------------------------------------------|
D---------------------------------------------------------------------|
A---------------------------------------------------------------------|
E---------------------------------------------------------------------|

any comments/corrections contact me, please rate
Comments