Blitz - Never Surrender Chords & Tabs

 

Never Surrender Chords & Tabs

Blitz Chords & Tabs

Version: 1 Type: Tab 0 ratings
1 star 2 stars 3 stars 4 stars 5 stars
comments

Never Surrender Tab

Intro
E|----------------|
B|----------------|
G|--12--10--7-----|
D|--12--10--7-----| 4X
A|--10---8--5-----|
E|----------------|

Verse
E|----------------------------/------------------|
B|----------------------------/------------------|
G|--77777777777777--12--10-3X-/--55555555555555--|
D|--77777777777777--12--10----/--55555555555555--| 2X
A|--55555555555555--10---8----/--33333333333333--|
E|----------------------------/------------------|
[ Tab from: http://www.guitartabs.cc/tabs/b/blitz/never_surrender_tab.html ]
E|----------------------------/--------------------------------|
B|----------------------------/--------------------------------|
G|--77777777777777--12--10-3X-/--555555555555----------88888-2X|
D|--77777777777777--12--10----/--555555555555--888888--88888---|
A|--55555555555555--10---8----/--333333333333--888888--66666---|
E|----------------------------/----------------666666----------|

Chorus
E|----------------|
B|----------------|
G|--12--10--7-----|
D|--12--10--7-----| 4X
A|--10---8--5-----|
E|----------------|

End Verse
E|----------------------------/--------------------|
B|----------------------------/--------------------|
G|--77777777777777--12--10-3X-/--55555555555555--7-|
D|--77777777777777--12--10----/--55555555555555--7-|
A|--55555555555555--10---8----/--33333333333333--5-|
E|----------------------------/--------------------|

TAb by PAULO MARASCA FILHO
Comments