Blink 182 - Zulu Chords & Tabs

 

Zulu Chords & Tabs

Blink 182 Chords & Tabs

Version: 2 Type: Tab 0 ratings
1 star 2 stars 3 stars 4 stars 5 stars
comments

Zulu Tab

blink 182, zulu.
 Tabbed by Carlos hodgkin  celaya,hodgkin182@hotmail.com.
  
**********************************************************************
	ZULU - BLINK 182 - CONQUER URANUS & DICK LIPS (SENCILLO)
**********************************************************************

Intro (DEJARLO SONANDO)
G|-6------------------------------------------------------------------|
D|-7------------------------------------------------------------------|
A|-5------------------------------------------------------------------|
E|--------------------------------------------------------------------|

REQUINTO 1 x2
G|--------------------------------------------------------------------|
D|-777----777------777------------------------------------------------|
A|----4445---4445-----44454445-7--------------------------------------|
E|--------------------------------------------------------------------|

REQUINTO 2
G|---------------777666-------9x9x-777666-----------------------------|
D|-7-7-7-7-7-7-7--------------9x9x------------------------------------|
A|-7-7-7-7-7-7-7----------x3--7x7x------------------------------------|
E|-5-5-5-5-5-5-5------------------------------------------------------|
[ Tab from: http://www.guitartabs.cc/tabs/b/blink_182/zulu_tab_ver_2.html ]
***********************************************************************
                  		BAJO
***********************************************************************
  INTRO/VERSO 1
  (TOCE ESTA PARTE TAMBIEN EN EL VERSO 1 )
G|----------------------------------------------------------------------
D|----------------------------------------------------------------------
A|------------------5>-------5>-------5>---7>----5>---------------------
E|----5~-----5>-------5>-------5>----------------------------------------

VERSO 2

 (so change your tune...)
G|----------------------------------------------------------------------
D|----------------------------------------------------------------------
A|------------------------5-5-----------------------5-5-----------------
E|---4>---2>---0>-------------4>---2>--0>----------4>--2>--0>-----------

G|-----------------------
D|-----------------------
A|------7>----5-5--------
E|-----------------------


FIN EN LA CUERDA E
  
G|-----------------------------------------------
D|-----------------------------------------------
A|-----------------------------------------------
E|---4>--2>---0-------------------------------

LA ULTIMA PARTE DE LA CANCION
(i'm going to blend in...)

G|-----------------------------------------------
D|-----------------------------------------------
A|---------5-------------------------------------
E|--0r-----------5------------------------------

 r= UNA PAUSA Y LUEGO LA OTRA PARTE

 
:: Ultimate Guitar Archive :: 
http://www.ultimate-guitar.com 


 
Comments