Blink 182 - Zulu Chords & Tabs

 

Zulu Chords & Tabs

Blink 182 Chords & Tabs

Version: 1 Type: Tab 0 ratings
1 star 2 stars 3 stars 4 stars 5 stars
comments

Zulu Tab

song:zulu
tabbed by dammit08@hotmail.com

intro let ring
e|--------------------------------------------------------| 
B|--------------------------------------------------------| 
G|--------------------------------------------------------| 
D|-7------------------------------------------------------| 
A|-7------------------------------------------------------| 
E|-5------------------------------------------------------| 
[ Tab from: http://www.guitartabs.cc/tabs/b/blink_182/zulu_tab.html ]
Riff 1 x2 
e|--------------------------------------------------------| 
B|--------------------------------------------------------| 
G|--------------------------------------------------------| 
D|-777----777------777------------------------------------| 
A|----4445---4445-----44454445-7--------------------------| 
E|--------------------------------------------------------| 

Riff 2 
e|--------------------------------------------------------|
B|--------------------------------------------------------|
G|----------------777666-------9x9x-777666----------------|
D|-7-7-7-7-7-7-7---------------9x9x-----------------------|
A|-7-7-7-7-7-7-7-----------x3--7x7x-----------------------|
E|-5-5-5-5-5-5-5------------------------------------------|


Comments