Blink 182 - You Fucked Up My Life Chords & Tabs

 

You Fucked Up My Life Chords & Tabs

Blink 182 Chords & Tabs

Version: 1 Type: Tab 2 ratings
1 star 2 stars 3 stars 4 stars 5 stars
comments

You Fucked Up My Life Tab

   
"you fucked up my life"
Blink 182
tabbed by burns
email comments to burnsofive@yahoo.com

Intro
e|------------------------
B|-----0-----------0------
G|-------2-----------2----
D|---2-----------2--------
A|------------------------
E|------------------------


Riff 1
A   F#  D
A   F#  D


Riff2
A   F#  E   D
A   F#  E   D


Riff 3 
A   G#a F#  D
A   G#a F#  D


Riff 4
F#  D   A   A
F#  D   A   A
E   D


Bridge
e|------0---------------0---------------0---------------0------------
B|--------------2---------------2---------------2---------------2----
G|----2---2---2---2---2---2---2---2---2---2---2---2---2---2---2---2--
D|----------------------------------0-------0-------0-------0--------
A|--0-------0-------0-------0----------------------------------------
E|-------------------------------------------------------------------
[ Tab from: http://www.guitartabs.cc/tabs/b/blink_182/you_fucked_up_my_life_tab.html ]
e|------0---------------0---------------0---------------0------------
B|--------------2---------------2---------------2---------------2----
G|----2---2---2---2---2---2---2---2---2---2---2---2---2---2---2---2--
D|----------------------------------0-------0-------0-------0--------
A|--0-------0-------2-------2----------------------------------------
E|-------------------------------------------------------------------


chords used in riffs
    A   F#  D   E  G#a
e|---------------------
B|---------------------
G|----------7---9------
D|--7---4---7---9---7--
A|--7---4---5---7---7--
E|--5---2-----------4--


song order
Intro
Riff 1
Riff 2
Riff 1
Riff 2
Riff 3
Riff 1
Riff 2
Riff 3
Bridge
Riff 4
Riff 1 (repeat till end of song)


Notes:  whenever you play riff 1, you can play the intro over 
top of it with a second guitar.  also, at the end of the bridge, 
he kinda blends it into the next riff, whereas i didn't.  it was 
just easier to tab out what it would look like if he had kept with 
the pattern of the bridge.  sorry this is so long, but i tried to 
make it as complete as possible, so there wouldn't be any questions.
This is near perfect, the only uncertainty being the "G#a" chord.  
i just made up the name, but that's how he plays it (A power chord 
with a G# bassnote, listen carefully to the song). feel free to 
email me: burnsofive@yahoo.com
Comments