Blink 182 - Wrecked Him Chords & Tabs

 

Wrecked Him Chords & Tabs

Blink 182 Chords & Tabs

Version: 4 Type: Tab 0 ratings
1 star 2 stars 3 stars 4 stars 5 stars
comments

Wrecked Him Tab

   
Title: Wrecked Him
Artist: Blink 182
Album: They Came to Conquer Uranus (I think)

Transcribed by Adam Sanchez

Leave corrections, additions and/or comments at:
alvins52@hotmail.com
or just leave them in the comments/corrections box near the top of the page.

There are at least 2 guitars in this song. The rhythm guitar obviously plays the chords. 
chord names are above the tabs so they are played with the lead.

HERE ARE THE CHORDS
  D5     G5     A5     E5     E5ii
|---------------------------------|
|---------------------------------|
|-7---------------------------9---|
|-7------5------7------2------9---|
|-5------5------7------2------7---|
|--------3------5------0----------|


h      =  Hammer on
p      =  Pull off
PM...  =  Palm mute
~      =  Hold note/chord
\      =  Slide down

Here's the tab

Intro Pt 1:

I think this is the bass playing. If not, just play the following chords clean.

D5     G5     A5     G5

Intro Pt 2:
  D5              G5              A5              G5
|-----------------------------------------------------------------|
|-----------------------------------------------------------------|
|-------7-7-7-6-6-------6-6-6-7-7-------7-7-7-6-6-------6-6-6-7-7-|
|-0-0-0-----------5-5-5-----------7-7-7-----------5-5-5-----------|all
|-----------------------------------------------------------------|x2
|-----------------------------------------------------------------|

Verse 1:

D5             G5               A5              G5
With all those words you bring,    why do you   say what you don't
mean? To those people who don't care about one  thing you might
need and you   just don't know     your actions always shine the
most to those  people who don't care if         you end up alone.
[ Tab from: http://www.guitartabs.cc/tabs/b/blink_182/wrecked_him_tab_ver_4.html ]
Chorus:
D5     E5     G5                A5
                 You need some  time to
sew              all those      bridges that you
burned           'cause there's nothing left to
bring            to some    -   one who just won't learn.

REPEAT INTRO

Verse 2:
D5            G5              A5              G5
Have you made up your mind?      How have you known what you de-
cide to those people who just think that      you're telling
lies? So I    give up,           I've made it clear as it can
be to those people who don't  care about one  thing that you might need.

REPEAT CHORUS
REPEAT INTRO PT 1

Guitar Solo:  (The chord changing might not be 100%)

  D5          E5ii           G5     A5
|-------------------------------------------|
|-------------------------------------------|
|-------------------------------------------|
|-----------------------------------4h5p4---|
|-5-5-5--5--4-5--5-5--5--4-5-7--5-4-------5-|x2
|-------------------------------------------|
  PM.

  D5        E5ii           G5             A5
|--------------------------------------------------|
|--------------------------------------------------|
|-7p6--7p6--9p6--7p6--7p6--7p6--9p6--7p6--7p6--7p6-|
|--------------------------------------------------|
|--------------------------------------------------|
|--------------------------------------------------|

  D5        E5              G5      A5             D5~     \
|-------------------------|----------------------------------|
|-------------------------|----------------------------------|
|-7p6--9p6--7p6--7p6--7p6-|----------------------------------|
|-------------------------|-7--5--4-5--7--5--4h5p4-----------|
|-------------------------|------------------------5~------\-|
|-------------------------|----------------------------------|

REPEAT INTRO PT 1
PICK SCRAPE

After solo:
D5     E5     G5     A5  x4
                     (Oh)
REPEAT CHORUS
END ON D5~

And there ya are...
Comments